Higher Praise - Guitar Chords, Lyrics  GuitarTabs -  Praise nad Worship Music And Christian Songs

Higher Praise - Guitar Tabs, Guitar Chords, Lyrics
   Lyrics, Chords And Tabs
   Popular Lyrics Chords Tab
   Power Point Lyrics
   Praise & Worship Music
   Christian Music Videos
   15900 Videos & Audios
   Midi Files
   Worship Questions
   Christmas Chords, Lyrics
   Lyrics, Chords Tabs Rated

Sermon Outlines And Audio Sermons
   9344 Sermon Outlines
   N.T. Sermon Outlines
   O.T. Sermon Outlines
   Special Guest Outlines
   10.000 Illustrations
   Sunday School Studies
   Bible College Studies
   Greatest Preachers
   Bible Research Tools
Audio Sermons
   2895 Audio Sermons
   85 Sermon Videos
   291 Special Guests Serm

   Complete Audio Bible
Higher Praise Sunday School Teaching
   Children's NT Studies
   Children's OT Studies

   98 Children's Midis
   Gospel For Kids Movie
   Children's JESUS Film
Higher Praise Christian Video Library ,Videos
   Christian Television
   TBN TV Live
   15,000 Videos - HP Tube
   712 Youth Music Vids
  Christian Video Library
   Praise Videos #1 & #2
   85 Sermon Videos
   Prophecy Film -Videos
   JESUS Film -Video
   Childrens JESUS Film
   Gospel For Kids Movie
   Passion Of The Christ
   Noah, Sodom, Sinai, Ark
   Tsunami Videos Photos
News And Information
   Testimonies
   Submit Lyrics, Tabs, Serm
   10.000 Illustrations
   Bible College Course
   Clipart & Web Graphics
   Greatest Preachers
   Complete Talking Bible
   Christian Chat Rooms
   Links Church Resource
   HP Statement Of Faith
Download Clipart
   Audio Sermons
   Clipart & Web Graphics
   Church Administration
   Bible Study Software
   Screen Savers Software
   Verse A Day Software
   Educational Games
   Trade Center Photos

   Soft. Search Engine
Higher Praise News
   Current News
    Archived News
   Submit News
   Newsletter   Higher Praise Interact Prayer
   Prayer For All Needs
   
Submit Lyrics, Sermons
   
Contact Higher Praise
   
Advertising 
   Privacy Policy
//
He Died For You,  Click For Answer! This Is Who Jesus Is Video

'
 
0-9 A B C D E F G H I J K L M N O P Q R S T U V W X Y Z
.

//
Click For Printable...Version Of This File
 

Forever2


by Third day




Third Day - Third Day
"Forever"

Tuning:  Standard

h=hammer on
b=bend
r=release
~b=slow bend
r~slow release

Intro:  Mark Lee
----------------
----------------
-------------5--   (12 times)
--5-5--5h7------
----------------
----------------

Intro:  Brad Avery
--------------------------------------
-----8-----------8b-r8---6-6p5--6-5---
--7b---7b---5-------------------------
--------------------------------------
--------------------------------------
--------------------------------------

Verse:  Brad Avery
-8-8--x-5----5---5-----------
-8-8--x-5h6--6---6----------
-5-5--x-5----5---5-----------
-5-5--x-5h7--7---7----------
------------------------------
------------------------------

Chorus:  Brad Avery
-5-------5--5----------
-6-------8--6----------
-5-(5x)--5--5---(repeat verse riff)
-7-------7--7----------
------------------------
------------------------

"....your love the the same yesterday, today and forever"
---------------------------------------------------
--------8-----------------------6-----------------
--------7-----------------------5-----------------
--------5-----------------------3-----------------
--------------------------------------------------
--------------------------------------------------
(then return back to the verse)

Solo:
Mark Lee:  repeats the intro 12 times, then moves to chorus riff
---------------------------------------------8-----8b--r8--------------------------------15--
-----8-----------8b-r8---6-6p5--6-5----8b---r8----------6-6p5--6-5---8b-------15b------r15---
--7b---7b---5--------------------------------------------------------------------------------
---------------------------------------------------------------------------------------------
---------------------------------------------------------------------------------------------
---------------------------------------------------------------------------------------------

--------------------------------
------13------------------------
-12b-----10---7~b--r~7----5-----
--------------------------------
--------------------------------
--------------------------------

Verse1:
I  see a hand  reaching out to help me
but I don't understand  all of  Your ways
You are still the potter  and I am just the clay
And though I know at times I am too proud
To reach for You,  to help me out
But if I waited on myself to get it right
I would be waiting here forever

*Chorus*
but Your grace is never gonna to change
And Your faith always will remain
And Your love is the same yesterday, today, and forever

*End Chorus*

I see a world looking for an answer but I don't know what for
When will we realize that we're
sinners in the hands of a loving God who came and died

And wants to set us free
Oh how He longs to be with you and me
But if we waited on the truth to change at all
We would be waiting here forever

*Repeat Chorus*

I see Your hand reaching out to help me
But I don't understand all of Your ways
but you saved me, I thank You Jesus

*Repeat Chorus*

Maybe that will help some
God Bless!!!!!



 


/
How To Set Up Higher Praise As Your Home Page
Copyright 1999, Higher Praise HigherPraise,Inc. All rights reserved. Terms of Use

Enjoy A Life Changing Experience

 
 
 
HigherPraise, Higher Praise, HigherPraise, Higher Praise, HigherPraise

Members..Sign Up. LogIn

 
 

Higher Praise Other Sites
 
 

HigherPraise.org/
Praise And Worship
www.higherpraise.org

HigherPraise.net
Christian Resources
www.higherpraise.net

HigherPraiseTube.com
Videos And Audios
www.higherpraisetube.com.


ChristianLyrics.org

Lyrics And Chrords
www.christianlyrics.org

ChristianChordsLyrics

Lyrics And Chrords
www.christianchordslyrics.com

ChristianChordLyrics

Lyrics And Chrords
www.christianchordlyrics.com

WorshipLyrics.org
10.000 Illustrations
www.worshiplyrics.org

WorshipLyrics.net
10.000 Illustrations
www.worshiplyrics.net

PraiseLyrics.com
PowerPoint Lyrics

www.praiselyrics.com

PraiseLyrics.org
PowerPoint Lyrics

www.praiselyrics.org

1GodTube.com
Chistian Videos

www1godtube..com

OneGodTube.com
Chistian Videos

www.onegodtube..com

 

/
Copyright 1999 - 2019, Higher Praise™ HigherPraise™,Inc. All rights reserved. Terms of Use