Higher Praise - Guitar Chords, Lyrics  GuitarTabs -  Praise nad Worship Music And Christian Songs

Higher Praise - Guitar Tabs, Guitar Chords, Lyrics
   Lyrics, Chords And Tabs
   Popular Lyrics Chords Tab
   Power Point Lyrics
   Praise & Worship Music
   Christian Music Videos
   15900 Videos & Audios
   Midi Files
   Worship Questions
   Christmas Chords, Lyrics
   Lyrics, Chords Tabs Rated

Sermon Outlines And Audio Sermons
   9344 Sermon Outlines
   N.T. Sermon Outlines
   O.T. Sermon Outlines
   Special Guest Outlines
   10.000 Illustrations
   Sunday School Studies
   Bible College Studies
   Greatest Preachers
   Bible Research Tools
Audio Sermons
   2895 Audio Sermons
   85 Sermon Videos
   291 Special Guests Serm

   Complete Audio Bible
Higher Praise Sunday School Teaching
   Children's NT Studies
   Children's OT Studies

   98 Children's Midis
   Gospel For Kids Movie
   Children's JESUS Film
Higher Praise Christian Video Library ,Videos
   Christian Television
   TBN TV Live
   15,000 Videos - HP Tube
   712 Youth Music Vids
  Christian Video Library
   Praise Videos #1 & #2
   85 Sermon Videos
   Prophecy Film -Videos
   JESUS Film -Video
   Childrens JESUS Film
   Gospel For Kids Movie
   Passion Of The Christ
   Noah, Sodom, Sinai, Ark
   Tsunami Videos Photos
News And Information
   Testimonies
   Submit Lyrics, Tabs, Serm
   10.000 Illustrations
   Bible College Course
   Clipart & Web Graphics
   Greatest Preachers
   Complete Talking Bible
   Christian Chat Rooms
   Links Church Resource
   HP Statement Of Faith
Download Clipart
   Audio Sermons
   Clipart & Web Graphics
   Church Administration
   Bible Study Software
   Screen Savers Software
   Verse A Day Software
   Educational Games
   Trade Center Photos

   Soft. Search Engine
Higher Praise News
   Current News
    Archived News
   Submit News
   Newsletter   Higher Praise Interact Prayer
   Prayer For All Needs
   
Submit Lyrics, Sermons
   
Contact Higher Praise
   
Advertising 
   Privacy Policy
//
He Died For You,  Click For Answer! This Is Who Jesus Is Video

'
 
0-9 A B C D E F G H I J K L M N O P Q R S T U V W X Y Z
.

//
Click For Printable...Version Of This File
 

Agnus dei


by Third day




Agnus Dei
Artist: Third Day
Album:Exodus c. 1998
Agnus Dei produced by Michael W. Smith 1990



I am going to tab out the 3 main guitar parts to this song. The first
part will be the music that the acoustic and one electric plays. The
second part is that which the lead guitar plays.

Intro:  Begins with two measures of bass and snare. Then the guitars
kick in.

Here’s the bass pattern. (This is also played throughout most of the
song too)

e-------------------------------------
B-------------------------------------
G--------0----------0--2--------------
D--------------------------3----------
A--3--3-------3--3--------------------
E-------------------------------------

Guitar 1 and acoustic
After this, everything kicks in.

Intro chords:   C   C/G
     This is played for 8 measures.
Then the chord changes to F. This is played for 4 measures. *If you want
the full effect with this, I believe Third Day uses a bend effect to
bend the F chord at the end.


(just acoustic)
Verse 1:
C      F  C
Hal-lelujah
C      F                                C
Hal-lelu-jah, for our Lord God Almighty reigns.
C      F  C
Hal-lelujah
C      F                                C
Hal-lelu-jah, for our Lord God Almighty reigns.
C      F
Hal-lelu-jah...

(all)
Chorus:
    C
Ho-oly!
   C
Holy!
                       G
Are You Lord God Almighty!
              F
Worthy is the Lamb!
              F
Worthy is the Lamb!

1st ending : You are...(repeat chorus)
                     C
2nd ending : You are Holy.(listen to recording to see how many beats to
wait.)

Verse 2:(acoustic and electric with trem)

C      F  C
Hal-lelujah
C      F                                C         F   C
Hal-lelu-jah, for our Lord God Almighty reigns.
C      F  C
Hal-lelujah
C      F                                C         F   C
Hal-lelu-jah, for our Lord God Almighty reigns.
(just acoustic)
C      F
Hal-lelu-jah...


Chorus:

    C
Ho-oly!
   C
Holy!
                      G
Are You Lord God Almighty!
              F
Worthy is the Lamb!
              F
Worthy is the Lamb!
        C
You are Holy!
   C
Holy!
                      G
Are You Lord God Almighty!
              F
Worthy is the Lamb!
              Fm
Worthy is the Lamb!
          C
You are Holy!
   C
Holy!
                      G
Are You Lord God Almighty!
              F
Worthy is the Lamb!
              Fm
Worthy is the Lamb-yeaheeyah!!!

Ghetto Jam:

Guitar 1 plays these three, G#  A#  C   ,as power chords. “You are Holy”
is sung behind it. And that concludes guitar 1 and acoustic.




Guitar 2 (lead):

Intro: wait 2 measures for bass like other guitars. Then play:

C   C/G  for 4 measures.

Then play the following pattern for 4 more measures.(it’s the same as
the bass pattern)


e---------------------------------------
B---------------------------------------
G----------------------------2----------
D---------5v-----------5v---------3-----
A--3--3---------3--3--------------------
E---------------------------------------

When the chord changes to F, play the following pattern:


e----------------------------------------------------------------------
B----------------------------------------------------------------------
G------------5v-----------5v--------5v------5v------5---5--5-----------
D----3--3----------3--3---------3-3-----3-3-----3-3---3--3---3---------
A----------------------------------------------------------------------
E----------------------------------------------------------------------

*Sit quiet for about 2 lines.

*
Hal-lelujah

Hal-lelu-jah, for our Lord God Almighty reigns.

Hal-lelujah
       *riff 1                                 (play intro pattern)
Hal-lelu-u-jah, for our Lord God Almighty reigns.

Hal-lelu-jah...

*Riff 1 (play while singing  “...lu-u-jah”)
e----------------------
B----------1-----------
G------2---------------
D--3-------------------
A----------------------
E----------------------

Chorus:

    C
Ho-oly!
   C
Holy!
                      G
Are You Lord God Almighty!
              F
Worthy is the Lamb!
              F
Worthy is the Lamb!

1st ending:  “You are...”

2nd ending:  play pattern below: (listen to recording to know when to
come in)

2nd ending
e----------------------------------------------------------------------
B----------------------------------------------------------------------
G-----------------------7---------7--9v---9\--(slide down)-------------
D--------------------7-----10v-----------------------------------------
A----------7--8--10----------------------------------------------------
E---8--10--------------------------------------------------------------

Verse 2

Hal-lelujah
       Riff 1                                 Intro pattern
Hal-lelu-jah, for our Lord God Almighty reigns.
           *Riff 2
Hal-lelujah
        Riff 1                                 Intro pattern
Hal-lelu-jah, for our Lord God Almighty reigns.
Quiet
Hal-lelu-jah...

*Riff 2
e------------------
B------------------
G--0--2--0---------
D------------3-----
A------------------
E------------------

Chorus 2:

e----------15v------------------15v--------------15v---------------15v
B--13----------13------13-----------13------13----------13----13-------
G-----12-------------------12------------------12----------------12----
D----------------------------------------------------------------------
A----------------------------------------------------------------------
E----------------------------------------------------------------------


e--12-------13v-----12---------13v------
B------15----------------15-------------
G---------------------------------------   Repeat from the top 2x
D---------------------------------------
A---------------------------------------
E---------------------------------------

Ghetto Jam:(below is basically the beginning of what the lead plays.
Again, listen to the recording. It’s not necessary to tab out all of the
end solo, because we’re not Third Day nor will we ever be. Just play the
beginning portion given and ad lib the rest. Use the creative part of
your brain!)
e----------------------------------------------------10b---------------
B----------------------------------------------------------------------
G--12b13r12v---10-9v----10--9v-----------------------------------------
D--------------------------------10/12/13\12v--12h13------13\12\10/12v-
A----------------------------------------------------------------------
E----------------------------------------------------------------------

For those that don’t enjoy ad-libbing, here some stuff to play during
the jam.(Take some time spacing everything out, throwing in some bends,
vibratos, and your own personal touch.)This isn’t to be played in any
particular order. Make one up.
e----------------------------------------------------------------------
B----------------------------------------------------------------------
G---10--------------------10--12b------------12h13---------------------
D------13--10v-----12h13--------------12h13---------12/15v---13-12-10v-
A----------------------------------------------------------------------
E----------------------------------------------------------------------


e--13p12----------10b--------
B---------13-----------------
G-------------12-------------
D----------------------------
A----------------------------
E----------------------------


If you don’t listen to the recording, you may have some timing problems
between verse and chorus.
This is a great version of the song. If you want to hear something cool,
listen to the original version Michael W. Smith. It’s great!

P.S. If you have any tips or pointers for my great, new, Christian rock

Thanks! 


/
How To Set Up Higher Praise As Your Home Page
Copyright 1999, Higher Praise HigherPraise,Inc. All rights reserved. Terms of Use

Enjoy A Life Changing Experience

 
 
 
HigherPraise, Higher Praise, HigherPraise, Higher Praise, HigherPraise

Members..Sign Up. LogIn

 
 

Higher Praise Other Sites
 
 

HigherPraise.org/
Praise And Worship
www.higherpraise.org

HigherPraise.net
Christian Resources
www.higherpraise.net

HigherPraiseTube.com
Videos And Audios
www.higherpraisetube.com.


ChristianLyrics.org

Lyrics And Chrords
www.christianlyrics.org

ChristianChordsLyrics

Lyrics And Chrords
www.christianchordslyrics.com

ChristianChordLyrics

Lyrics And Chrords
www.christianchordlyrics.com

WorshipLyrics.org
10.000 Illustrations
www.worshiplyrics.org

WorshipLyrics.net
10.000 Illustrations
www.worshiplyrics.net

PraiseLyrics.com
PowerPoint Lyrics

www.praiselyrics.com

PraiseLyrics.org
PowerPoint Lyrics

www.praiselyrics.org

1GodTube.com
Chistian Videos

www1godtube..com

OneGodTube.com
Chistian Videos

www.onegodtube..com

 

/
© Copyright 1999 - 2019, Higher Praise™ HigherPraise™,Inc. All rights reserved. Terms of Use