Higher Praise - Guitar Chords, Lyrics  GuitarTabs -  Praise nad Worship Music And Christian Songs

Higher Praise - Guitar Tabs, Guitar Chords, Lyrics
   Lyrics, Chords And Tabs
   Popular Lyrics Chords Tab
   Power Point Lyrics
   Praise & Worship Music
   Christian Music Videos
   15900 Videos & Audios
   Midi Files
   Worship Questions
   Christmas Chords, Lyrics
   Lyrics, Chords Tabs Rated

Sermon Outlines And Audio Sermons
   9344 Sermon Outlines
   N.T. Sermon Outlines
   O.T. Sermon Outlines
   Special Guest Outlines
   10.000 Illustrations
   Sunday School Studies
   Bible College Studies
   Greatest Preachers
   Bible Research Tools
Audio Sermons
   2895 Audio Sermons
   85 Sermon Videos
   291 Special Guests Serm

   Complete Audio Bible
Higher Praise Sunday School Teaching
   Children's NT Studies
   Children's OT Studies

   98 Children's Midis
   Gospel For Kids Movie
   Children's JESUS Film
Higher Praise Christian Video Library ,Videos
   Christian Television
   TBN TV Live
   15,000 Videos - HP Tube
   712 Youth Music Vids
  Christian Video Library
   Praise Videos #1 & #2
   85 Sermon Videos
   Prophecy Film -Videos
   JESUS Film -Video
   Childrens JESUS Film
   Gospel For Kids Movie
   Passion Of The Christ
   Noah, Sodom, Sinai, Ark
   Tsunami Videos Photos
News And Information
   Testimonies
   Submit Lyrics, Tabs, Serm
   10.000 Illustrations
   Bible College Course
   Clipart & Web Graphics
   Greatest Preachers
   Complete Talking Bible
   Christian Chat Rooms
   Links Church Resource
   HP Statement Of Faith
Download Clipart
   Audio Sermons
   Clipart & Web Graphics
   Church Administration
   Bible Study Software
   Screen Savers Software
   Verse A Day Software
   Educational Games
   Trade Center Photos

   Soft. Search Engine
Higher Praise News
   Current News
    Archived News
   Submit News
   Newsletter   Higher Praise Interact Prayer
   Prayer For All Needs
   
Submit Lyrics, Sermons
   
Contact Higher Praise
   
Advertising 
   Privacy Policy
//
He Died For You,  Click For Answer! This Is Who Jesus Is Video

'
 
0-9 A B C D E F G H I J K L M N O P Q R S T U V W X Y Z
.

//
Click For Printable...Version Of This File
 

This world


by Caedmons call




Song: "This World"
Group: Caedmon's Call
Album: _My Calm//Your Storm_
By: Aaron Tate

The part in the official songbook is Cliff Young's rhythm part.  Derek 
Webb plays lead.  It seems to work fine standard tuned.

Derek's chords:

 E|--0---0---0---2---2---
 B|--0---3---0---3---2---
 G|--2---2---1---4---2---
 D|--2---0---2---4---4---
 A|--0---x---2---2---4---
 e|--x---x---0---x---2---

open A9  D9  E   Bm  F#m

The chord progression goes A D E A A D E E over and over until "least 
of these" when it goes B D A E twice, then back to the above until "now 
I'm waking" when it goes F E F E F E D D and back to the above again.  
You might want to try picking the intro which is eight measures 
something like this:

 E|------0--------|------0--------|------0--------|------0--------|
 B|----------0--(0)----------3--(3)----------0--(0)--------------0|
 G|----2----------|----2----------|----1----------|----2-----1----|
 D|---------------|0--------------|---------------|---------------|
 A|0--------------|---------------|---------------|0--------------|
 e|---------------|---------------|0--------------|---------------|
   A9..............D9..............E...............A9.............

  |------0--------|------0--------|------0--------|------0--------|
  |----------0--(0)----------3--(3)----------0----|--0-------0----|
  |1h2------------|----2----------|----1---------2|--------------2|
  |---------------|0--------------|---------------|---------------|
  |---------------|---------------|---------------|---------------|
  |---------------|---------------|0--------------|---------------|
   ................D9..............E..............................

The rest of the song is just strumming simple patterns.  You can throw 
in the same hammers-on the 3rd string as are in the intro.  You 
probably don't want to try the solo unless there is another guitar on 
rhythm, which is the part in the songbook.  (The other guitar does add 
a lot though, even without the solo.)  The solo is mostly just 
alternating picking between the bottom string open and the basic melody 
of the solo.  For a guitar solo, it is relatively easy, but it still 
might be a challenge.

Transcribed by Trevor Stilwell
3:02am 7/19/1997



Guitar solo in "This World" by Caedmon's Call
From the albums "My Calm//Your Storm" and "Caedmon's Call"
Words and music by Aaron Tate
Copyright 1994 Cumbee Road Music ASCAP
Romans 12


Rhythm is capo 2 in G; lead/solo is open in A.  Actually, the solo is 
"stacked", meaning it's played a second time and dubbed over the first. 
The only times the two parts split--so you won't be able to exactly 
duplicate the sound of the studio version--are measures 7-8 and 15-16 
of the solo.  The first time isn't very noticeable if you have a rhythm 
guitar as well; the second time, either way works by itself (the first 
is easier), or you can try to combine the main parts of both, or just 
improvise.  Subjectively, I'd say the song is in 2/2 time, but i used 
8/8 to make tabbing easier.


   s = slide
   p = pull-off
   h = hammer-on
   v = vibrato


  Bar 1                               2
 Count 1   2   3   4   5   6   7   8   1   2   3   4   5   6   7   8   
    e-|------------0-------0----------|----0-------0---------------0--|
    b-|3--s5-------------------5--s3--|----------------3--s2----------|
    g-|-------------------------------|-------------------------------|
    d-|-------------------------------|-------------------------------|
    a-|-------------------------------|-------------------------------|
    e-|-------------------------------|-------------------------------|
Rhythm G.............................. C.............................. 

  3                               4
   1   2   3   4   5   6   7   8   1   2   3   4   5   6   7   8   
e-|----0---------------0-------0--|------------0---------------0--|
b-|--------2--p0------------------|-------------------------------|
g-|-------------------------------|2---------------2--s4----------|
d-|-------------------------------|-------------------------------|
a-|-------------------------------|-------------------------------|
e-|-------------------------------|-------------------------------|
   D.............................. G.............................. 

  5                               6
   1   2   3   4   5   6   7   8   1   2   3   4   5   6   7   8   
e-|------------0-------0----------|------------0---------------0--|
b-|-------------------------------|-------------------------------|
g-|4--s2-------------------2------|-------------------------------|
d-|-------------------------------|2---------------2--s4----------|
a-|-------------------------------|-------------------------------|
e-|-------------------------------|-------------------------------|
   G.............................. C.............................. 

(one of the guitars stays on the open 1st string here, see note above)
  7                               8
   1   2   3   4   5   6   7   8   1   2   3   4   5   6   7   8   
e-|----------------5--------------|4-----------4---5--s7----------|
b-|-------------------------------|-------------------------------|
g-|-------------------------------|-------------------------------|
d-|4--s2--------------------------|-------------------------------|
a-|-------------------------------|-------------------------------|
e-|-------------------------------|-------------------------------|
   D.............................................................. 

  9                               10
   1   2   3   4   5   6   7   8   1   2   3   4   5   6   7   8   
e-|------------0-------0----------|----0-------0---------------0--|
b-|5--s7-------------------7--s10-|----------------10-s12---------|
g-|-------------------------------|-------------------------------|
d-|-------------------------------|-------------------------------|
a-|-------------------------------|-------------------------------|
e-|-------------------------------|-------------------------------|
   G.............................. C.............................. 

  11                              12
   1   2   3   4   5   6   7   8   1   2   3   4   5   6   7   8   
e-|----0---------------0-------0--|-------------------------------|
b-|--------12-s14-----------------|14--------------14----------15-|
g-|-------------------------------|-------------------------------|
d-|-------------------------------|-------------------------------|
a-|-------------------------------|-------------------------------|
e-|-------------------------------|-------------------------------|
   D.............................. G.............................. 

  13                              14
   1   2   3   4   5   6   7   8   1   2   3   4   5   6   7   8   
e-|-------------------------------|-------------------------------|
b-|----14------12--------------15-|----15------14----------9--h10-|
g-|--------------------14------16-|----16------14-----------------|
d-|-------------------------------|-------------------------------|
a-|-------------------------------|-------------------------------|
e-|-------------------------------|-------------------------------|
   G.............................. C.............................. 

(here's the easy part of the stack)
  15                              16
   1   2   3   4   5   6   7   8   1   2   3   4   5   6   7   8   1
e-|-------------------------------|-------------------------------|---
b-|9v-----------------------------|----------------12-------------|10-
g-|----------------11-------------|9------------------------------|---
d-|-------------------------------|-------------------------------|
a-|-------------------------------|-------------------------------|
e-|-------------------------------|-------------------------------|
   D.............................................................. G...

(here's the other part)
  15                              16
   1   2   3   4   5   6   7   8   1   2   3   4   5   6   7   8   1
e-|-------------------------------|-------------------------------|
b-|9------------------------------|-------------------------------|
g-|--------11---------------------|--------7-------6---7---6---4--|--
d-|-------------------------------|-------------------------------|7-
a-|-------------------------------|-------------------------------|--
e-|-------------------------------|-------------------------------|
   D.............................................................. G...



More songs available at http://www.engr.uark.edu/~tks/tab/
 


/
How To Set Up Higher Praise As Your Home Page
Copyright 1999, Higher Praise HigherPraise,Inc. All rights reserved. Terms of Use

Enjoy A Life Changing Experience

 
 
 
HigherPraise, Higher Praise, HigherPraise, Higher Praise, HigherPraise

Members..Sign Up. LogIn

 
 

Higher Praise Other Sites
 
 

HigherPraise.org/
Praise And Worship
www.higherpraise.org

HigherPraise.net
Christian Resources
www.higherpraise.net

HigherPraiseTube.com
Videos And Audios
www.higherpraisetube.com.


ChristianLyrics.org

Lyrics And Chrords
www.christianlyrics.org

ChristianChordsLyrics

Lyrics And Chrords
www.christianchordslyrics.com

ChristianChordLyrics

Lyrics And Chrords
www.christianchordlyrics.com

WorshipLyrics.org
10.000 Illustrations
www.worshiplyrics.org

WorshipLyrics.net
10.000 Illustrations
www.worshiplyrics.net

PraiseLyrics.com
PowerPoint Lyrics

www.praiselyrics.com

PraiseLyrics.org
PowerPoint Lyrics

www.praiselyrics.org

1GodTube.com
Chistian Videos

www1godtube..com

OneGodTube.com
Chistian Videos

www.onegodtube..com

 

/
Copyright 1999 - 2019, Higher Praise™ HigherPraise™,Inc. All rights reserved. Terms of Use