Higher Praise - Guitar Chords, Lyrics  GuitarTabs -  Praise nad Worship Music And Christian Songs

Higher Praise - Guitar Tabs, Guitar Chords, Lyrics
   Lyrics, Chords And Tabs
   Popular Lyrics Chords Tab
   Power Point Lyrics
   Praise & Worship Music
   Christian Music Videos
   15900 Videos & Audios
   Midi Files
   Worship Questions
   Christmas Chords, Lyrics
   Lyrics, Chords Tabs Rated

Sermon Outlines And Audio Sermons
   9344 Sermon Outlines
   N.T. Sermon Outlines
   O.T. Sermon Outlines
   Special Guest Outlines
   10.000 Illustrations
   Sunday School Studies
   Bible College Studies
   Greatest Preachers
   Bible Research Tools
Audio Sermons
   2895 Audio Sermons
   85 Sermon Videos
   291 Special Guests Serm

   Complete Audio Bible
Higher Praise Sunday School Teaching
   Children's NT Studies
   Children's OT Studies

   98 Children's Midis
   Gospel For Kids Movie
   Children's JESUS Film
Higher Praise Christian Video Library ,Videos
   Christian Television
   TBN TV Live
   15,000 Videos - HP Tube
   712 Youth Music Vids
  Christian Video Library
   Praise Videos #1 & #2
   85 Sermon Videos
   Prophecy Film -Videos
   JESUS Film -Video
   Childrens JESUS Film
   Gospel For Kids Movie
   Passion Of The Christ
   Noah, Sodom, Sinai, Ark
   Tsunami Videos Photos
News And Information
   Testimonies
   Submit Lyrics, Tabs, Serm
   10.000 Illustrations
   Bible College Course
   Clipart & Web Graphics
   Greatest Preachers
   Complete Talking Bible
   Christian Chat Rooms
   Links Church Resource
   HP Statement Of Faith
Download Clipart
   Audio Sermons
   Clipart & Web Graphics
   Church Administration
   Bible Study Software
   Screen Savers Software
   Verse A Day Software
   Educational Games
   Trade Center Photos

   Soft. Search Engine
Higher Praise News
   Current News
    Archived News
   Submit News
   Newsletter   Higher Praise Interact Prayer
   Prayer For All Needs
   
Submit Lyrics, Sermons
   
Contact Higher Praise
   
Advertising 
   Privacy Policy
//
He Died For You,  Click For Answer! This Is Who Jesus Is Video

'
 
0-9 A B C D E F G H I J K L M N O P Q R S T U V W X Y Z
.

//
Click For Printable...Version Of This File
 

There you go


by Caedmons call




"There You Go"
By Caedmon's Call
Off "40 Acres" and "The Austin Sessions"
Written by Aaron Tate
(C) 1999 Cumbee Road Music (admin. by Music Services)/ASCAP


I was lucky enough to score one of the 20,000 copies of "The Austin
Sessions," so I included that version of this song as well.
I tried my best to combine both versions into one tab, so it may
be a little hard to read.  If you have any trouble email me and I'll
try to clarify.  Just remember that () means only on the "40 Acres"
version and [] means only on "The Austin Sessions" version.

Intro/Verse riff:
  For "The Austin Sessions" use these 2 riffs.  Listen to the CD to 
  know which one goes where.
    
    e--------------------------------------
    B---3---3---3---3---3-----3---5-5p3----
    G-----2-------2-------2h4---2-------2--
    D-0-------4-------5--------------------
    A--------------------------------------
    E--------------------------------------

    e------------------------------------------
    B---3---3---3---3---3-----3---5p3----------
    G-----2-------2-------2h4---2----4p2-------
    D-0-------4-------5-----------------4p2p0--
    A------------------------------------------
    E------------------------------------------

  For "40 Acres" use this riff:
    e------------------------------------
    B---3---3---3---3---3-----3---3---2--
    G-----2-------2-------2h4---2---2----
    D-0-------4-------5------------------
    A------------------------------------
    E------------------------------------

Riff 2: (for "40 Acres" only)
e-------------------0-----2-----3----2---
B---3---3---3---3-----3-----3-----3---3--
G-----2-------2--------------------------
D-0-------4-------0-----0-----0-----0----
A----------------------------------------
E----------------------------------------

Riff 3: (for "40 Acres" only)
e--3---2---0---2----
B----3---3---3---3--
G-------------------
D-------------------
A-------------------
E-------------------

Riff 4: (for "40 Acres" only)
()=optional
e----------------(3)-(2)-(0)---------
B---3---3---3---3---3---3---3-(3)-3--
G-----2-------2----------------------
D-0-------4-------5---4---2----0-----
A------------------------------------
E------------------------------------

Verse 1:(use the intro/verse riff)
Is this the strange feeling
Of you working all to good
'Cause I am so confused
I don't even ask for what I should

 [D]  [Bm]     [G]     [A]
When I asked for and deserved a stone
 [D]    [Bm]            [G]      [A]
You broke and gave your body as bread
 [D]   [Bm]   [G]                [A]      [D]       [Bm]
And even the stone that dropped down and rolled away
 [G] (Riff 2)
Spoke of the one who bled

Chorus:
 D        Bm   G
There you go working good from my bad
 D        Bm   G                   A
There you go making robes from my rags
 D        Bm   G
There you go melting crowns from my calves
 D        Bm   G
There you go working good of all I have
 G             (1st time Riff 3/2nd time Riff 4)
Till all I have's not that bad

Verse 2:(use the intro/verse riff)
 [D]  [Bm]     [G]     [A]
When I asked for and deserved a serpent
 [D]  [Bm] [G]         [A]
You gave a net full of fish
 [D]   [Bm]    [G]        [A]
And even the serpent that told the lie
(Riff 2) [D]  [Bm]   [G]
When lifted high foretold the gift

Chorus

[D2hD]  [A]
[D2hD]  [A]
[D2hD]  [A]
[D]  [A]  [D]

Bridge:
 (A) [Bm]    [G]
For you so loved the unlovable
 (A) [Bm]  [G]
That you gave the ineffable
 (Bsus4) [Bm]  [G]
That who so believes the unbelievable
 (Bsus4) [Em]    [A2]
Will gain the unattainable

(E)  (Bsus4)  (E)  (A2)
(E)  (Bsus4)  (E)  (A2)
(E)  (Bsus4)  (E)  (A2)
(E)  (Bsus4)  (E)  (A2)

Chorus 2x

Play Intro/Verse riff 2x
End on D

Chords:
  D  Bm  G       A  A2  Bsus4  E  D2hD   Em
e-2--2---3----3--0--0-----0----0---0h2---0---
B-3--3---3----0--2--0-----0----0---3-----0---
G-2--4---0-or-0--2--2-----4----2---2-----0---
D-0--4---0----0--2--2-----4----2---0-----2---
A-0--2---2----2--0--0-----2----1---0-----2---
E--------3----3--------------------------0---

 


/
How To Set Up Higher Praise As Your Home Page
Copyright 1999, Higher Praise HigherPraise,Inc. All rights reserved. Terms of Use

Enjoy A Life Changing Experience

 
 
 
HigherPraise, Higher Praise, HigherPraise, Higher Praise, HigherPraise

Members..Sign Up. LogIn

 
 

Higher Praise Other Sites
 
 

HigherPraise.org/
Praise And Worship
www.higherpraise.org

HigherPraise.net
Christian Resources
www.higherpraise.net

HigherPraiseTube.com
Videos And Audios
www.higherpraisetube.com.


ChristianLyrics.org

Lyrics And Chrords
www.christianlyrics.org

ChristianChordsLyrics

Lyrics And Chrords
www.christianchordslyrics.com

ChristianChordLyrics

Lyrics And Chrords
www.christianchordlyrics.com

WorshipLyrics.org
10.000 Illustrations
www.worshiplyrics.org

WorshipLyrics.net
10.000 Illustrations
www.worshiplyrics.net

PraiseLyrics.com
PowerPoint Lyrics

www.praiselyrics.com

PraiseLyrics.org
PowerPoint Lyrics

www.praiselyrics.org

1GodTube.com
Chistian Videos

www1godtube..com

OneGodTube.com
Chistian Videos

www.onegodtube..com

 

/
Copyright 1999 - 2019, Higher Praise™ HigherPraise™,Inc. All rights reserved. Terms of Use