Higher Praise - Guitar Chords, Lyrics  GuitarTabs -  Praise nad Worship Music And Christian Songs

Higher Praise - Guitar Tabs, Guitar Chords, Lyrics
   Lyrics, Chords And Tabs
   Popular Lyrics Chords Tab
   Power Point Lyrics
   Praise & Worship Music
   Christian Music Videos
   15900 Videos & Audios
   Midi Files
   Worship Questions
   Christmas Chords, Lyrics
   Lyrics, Chords Tabs Rated

Sermon Outlines And Audio Sermons
   9344 Sermon Outlines
   N.T. Sermon Outlines
   O.T. Sermon Outlines
   Special Guest Outlines
   10.000 Illustrations
   Sunday School Studies
   Bible College Studies
   Greatest Preachers
   Bible Research Tools
Audio Sermons
   2895 Audio Sermons
   85 Sermon Videos
   291 Special Guests Serm

   Complete Audio Bible
Higher Praise Sunday School Teaching
   Children's NT Studies
   Children's OT Studies

   98 Children's Midis
   Gospel For Kids Movie
   Children's JESUS Film
Higher Praise Christian Video Library ,Videos
   Christian Television
   TBN TV Live
   15,000 Videos - HP Tube
   712 Youth Music Vids
  Christian Video Library
   Praise Videos #1 & #2
   85 Sermon Videos
   Prophecy Film -Videos
   JESUS Film -Video
   Childrens JESUS Film
   Gospel For Kids Movie
   Passion Of The Christ
   Noah, Sodom, Sinai, Ark
   Tsunami Videos Photos
News And Information
   Testimonies
   Submit Lyrics, Tabs, Serm
   10.000 Illustrations
   Bible College Course
   Clipart & Web Graphics
   Greatest Preachers
   Complete Talking Bible
   Christian Chat Rooms
   Links Church Resource
   HP Statement Of Faith
Download Clipart
   Audio Sermons
   Clipart & Web Graphics
   Church Administration
   Bible Study Software
   Screen Savers Software
   Verse A Day Software
   Educational Games
   Trade Center Photos

   Soft. Search Engine
Higher Praise News
   Current News
    Archived News
   Submit News
   Newsletter   Higher Praise Interact Prayer
   Prayer For All Needs
   
Submit Lyrics, Sermons
   
Contact Higher Praise
   
Advertising 
   Privacy Policy
//
He Died For You,  Click For Answer! This Is Who Jesus Is Video

'
 
0-9 A B C D E F G H I J K L M N O P Q R S T U V W X Y Z
.

//
Click For Printable...Version Of This File
 

Hidden


by Living Sacrifice




Hidden
Album: The Hammering Process
by Living Sacrifice
on Solid State Records.





once again, i do not see the other version as correct, so here 
is my own interpretation...i will also redo my hidden solo which
is also found on christianguitar.org.  there is no mistakes, this 
tab should be perfect, so you can play along.

tuning: drop d flat.

Riff 1

when playing the notes on the 4th string(d), pick it numerous times,
very quickly;for all notes.
repeat as needed.

e-------------------------------------
b-------------------------------------
g-------------------------------------
d----0---1------0---------------------
a----------0-1----0-0-0-0-1-0---------
D--0---0------0---0-0-0-0-1-0---------


bass thing, then...

riff 2 repeat as needed.

e-------------------------------------
b-------------------------------------
g-------------------------------------
d-------------------------------------
a-------------------------------------
D-0-2-3-2-3-2-0-2-0-2-3-2-3-2-0-5-----
p/m...................................


riff 2 then sneaks into riff 3 

riff3--repeat as needed.

*** twice in that riff, throw in a '5'...you'll have to
listen for it. basically the same as the previous riff.

e-------------------------------------
b-------------------------------------
g-------------------------------------
d-------------------------------------
a-0-2-3-2-3-2-0-2---------------------
D-0-2-3-2-3-2-0-2---------------------



then to riff one a couple of times


then riff 4 after riff 1
 repeat all this as needed.

*the first time through, there is somekind of effect, i don't
use a pedal or nothing, so your on your own to figure that one
out.

d-------------------------------
a----------------------1--3-----
D--0-2-3-2-5-2-0-2-00-----------
p/m..................

as that riff builds, you eventually let off the heavy palm mute,
and you eventualy play this...

d----------------------3-5---
a--0-2-3-2-5-2-0-2-00--1-3---
D--0-2-3-2-5-2-0-2-00--------


riff 5


guitar 1

d--0---------0-------
a--0------3--0-------
D--0------3--0-------

and over top of that

guitar 2 (lead)

d--------------------------------
a---3/5-5-5-5-\3-3/6-6-6-8-------
D--------------------------------

guitar 2's riff is twice as fast as guitar 1's
so guitar 2 does that riff twice, and guitar 1
does his once.


then...

guitar 1

d---------------------------------------------
a-0000--00-000000--00-000000--00-0000--00-----
D-0000--00-000000--00-000000--00-0000--00-----

mute the strings in between each set.
Thats pretty much the pattern for guitar 1, its easy to
pick up.  

over that, guitar 2, the noise guitar plays...
with a wierd effect, i don't know...you don't really need
an effect.

e--------------
b--------------
g---12---------
d---17---------
a--------------
D--------------

after the even the vocals start, keep playing that...eventually
guitar 1 will continue playing his thing, but guitar 2 will play
what he did in riff 5.

then he slides into this (x2)

e-------------------------
b-------------------------
g--3-3-3-3-3\1-1/5-5-5-7--
d-------------------------
a-------------------------
D-------------------------



then the solo, which i did earlier, but i'll redo it cause there
were minor mistakes.

guitar 1 plays this throughout, hold the notes. listen for the timing.

d--------------
a-0---1---0----
D-0---1---0----

lead guitar solo.

e-------------------------------------------------------------
b-------------------------------------------------------------
g--------------------------------------------5h7h8p7--7b8-r7~-
d-------------5h7h8p7-8p7p5h7-----------5h7h8-----------------
a--------5h7h8---------------------5h7h8----------------------
D---5h7h8---------------------5h7h8---------------------------


solo cont'd


e-------------------------------------
b---------7-8-7h8p7p5h7p5--------15~--
g--7h8-------------------8-7h8p7------
d-------------------------------------
a-------------------------------------
D-------------------------------------



solo cont'd
p/m    ...    ...(VERY lightly)
e---17-0-0-15-0-0------------------------------
b----------------18-17~-17h18p17p15------------
g----------------------------------17(/19\0)---
d----------------------------------------------
a----------------------------------------------
D----------------------------------------------

do that part up there 4 times, then play the part in brackets on the
fourth time


then

d----------------
a----------------
D--0-0---10///0--

then...repeat as needed

d----------------------3-5---
a--0-2-3-2-5-2-0-3-00--1-3---
D--0-2-3-2-5-2-0-3-00--------

then


e-------------------------------------
b-------------------------------------
g-------------------------------------
d-------------------------------------
a-0-2-3-2-3-2-0-2---------------------
D-0-2-3-2-3-2-0-2---------------------

then that goes into guitar 2 doing this.

d---------------------------------------
a---(3/5-5-5-5-\3-3/6-6-6-8)x2-----0~~--
D----------------------------------0~~--

i may be wrong but guitar 1 just holds this till the end
its hard to say because of the sound interference...

d---------------
a-0-0-0-0-------
D-0-0-0-0-------

and thats it, enjoy. 


/
How To Set Up Higher Praise As Your Home Page
Copyright 1999, Higher Praise HigherPraise,Inc. All rights reserved. Terms of Use

Enjoy A Life Changing Experience

 
 
 
HigherPraise, Higher Praise, HigherPraise, Higher Praise, HigherPraise

Members..Sign Up. LogIn

 
 

Higher Praise Other Sites
 
 

HigherPraise.org/
Praise And Worship
www.higherpraise.org

HigherPraise.net
Christian Resources
www.higherpraise.net

HigherPraiseTube.com
Videos And Audios
www.higherpraisetube.com.


ChristianLyrics.org

Lyrics And Chrords
www.christianlyrics.org

ChristianChordsLyrics

Lyrics And Chrords
www.christianchordslyrics.com

ChristianChordLyrics

Lyrics And Chrords
www.christianchordlyrics.com

WorshipLyrics.org
10.000 Illustrations
www.worshiplyrics.org

WorshipLyrics.net
10.000 Illustrations
www.worshiplyrics.net

PraiseLyrics.com
PowerPoint Lyrics

www.praiselyrics.com

PraiseLyrics.org
PowerPoint Lyrics

www.praiselyrics.org

1GodTube.com
Chistian Videos

www1godtube..com

OneGodTube.com
Chistian Videos

www.onegodtube..com

 

/
Copyright 1999 - 2019, Higher Praise™ HigherPraise™,Inc. All rights reserved. Terms of Use