Higher Praise - Guitar Chords, Lyrics  GuitarTabs -  Praise nad Worship Music And Christian Songs

Higher Praise - Guitar Tabs, Guitar Chords, Lyrics
   Lyrics, Chords And Tabs
   Popular Lyrics Chords Tab
   Power Point Lyrics
   Praise & Worship Music
   Christian Music Videos
   15900 Videos & Audios
   Midi Files
   Worship Questions
   Christmas Chords, Lyrics
   Lyrics, Chords Tabs Rated

Sermon Outlines And Audio Sermons
   9344 Sermon Outlines
   N.T. Sermon Outlines
   O.T. Sermon Outlines
   Special Guest Outlines
   10.000 Illustrations
   Sunday School Studies
   Bible College Studies
   Greatest Preachers
   Bible Research Tools
Audio Sermons
   2895 Audio Sermons
   85 Sermon Videos
   291 Special Guests Serm

   Complete Audio Bible
Higher Praise Sunday School Teaching
   Children's NT Studies
   Children's OT Studies

   98 Children's Midis
   Gospel For Kids Movie
   Children's JESUS Film
Higher Praise Christian Video Library ,Videos
   Christian Television
   TBN TV Live
   15,000 Videos - HP Tube
   712 Youth Music Vids
  Christian Video Library
   Praise Videos #1 & #2
   85 Sermon Videos
   Prophecy Film -Videos
   JESUS Film -Video
   Childrens JESUS Film
   Gospel For Kids Movie
   Passion Of The Christ
   Noah, Sodom, Sinai, Ark
   Tsunami Videos Photos
News And Information
   Testimonies
   Submit Lyrics, Tabs, Serm
   10.000 Illustrations
   Bible College Course
   Clipart & Web Graphics
   Greatest Preachers
   Complete Talking Bible
   Christian Chat Rooms
   Links Church Resource
   HP Statement Of Faith
Download Clipart
   Audio Sermons
   Clipart & Web Graphics
   Church Administration
   Bible Study Software
   Screen Savers Software
   Verse A Day Software
   Educational Games
   Trade Center Photos

   Soft. Search Engine
Higher Praise News
   Current News
    Archived News
   Submit News
   Newsletter   Higher Praise Interact Prayer
   Prayer For All Needs
   
Submit Lyrics, Sermons
   
Contact Higher Praise
   
Advertising 
   Privacy Policy
//
He Died For You,  Click For Answer! This Is Who Jesus Is Video

'
 
0-9 A B C D E F G H I J K L M N O P Q R S T U V W X Y Z
.

//
Click For Printable...Version Of This File
 

Forward Motion


by Relient K




Forward Motion

by Relient K

Guitar 1 - standard tuning
Guitar 2 - standard tuning

Ok, I couldn't find a tab that all the parts tabbed out 
properly, so I did it myself. I think it's right, 
neways make sure you rate it, and have fun!

Intro: 

Gtr.1 - d string palm muted
|-------------------------|-------------------------|
|-------------------------|-------------------------|
|------6---8---6---8---6--|------6---5---6---5---6--|
|--8-8---8---8---8---8----|--6-6---6---6---6---6----|
|-------------------------|-------------------------|
|-------------------------|-------------------------|

|-----------------------------|--------------------------------|
|-----------------------------|--------------------------------|
|--------8---10---8---10---8--|--------10---13---10---11---10--|  
|--11-11--11---11---11---11---|--11-11---11---11---11---11-----|
|-----------------------------|--------------------------------|
|-----------------------------|--------------------------------|
Repeat whole section 3x

Gtr.2 - comes in on x2 of gtr.1
|--------|--------|--------|         |------------|
|--------|--------|--------|         |------------|
|--------|--------|--------|         |------------|
|--------|--------|---8~---| x2 then |------------|
|---8~---|---6~---|---6~---|         |--44444444--| 
|---6~---|---4~---|--------|         |--22222222--|

Verse: 

Both guitars - play as staccato
|-----------------|-----------------|-----------------|-----------------|
|-----------------|-----------------|-----------------|-----------------|
|-----------------|-----------------|-----------------|-----------------|
|-6-6-6-6-6-6-6-6-|-----------------|-----------------|-----------------| x2
|-4-4-4-4-4-4-4-4-|-6-6-6-6-6-6-6-6-|-8-8-8-8-8-8-8-8-|-4-4-4-4-4-4-4-4-|
|-----------------|-4-4-4-4-4-4-4-4-|-6-6-6-6-6-6-6-6-|-2-2-2-2-2-2-2-2-|

Pre Chorus 1: 

Gtr.1 - palm muted after x4
|---------------------------|
|---------------------------|
|-----10----13----10----10--| 
|--11----11----11----11-----| x8
|---------------------------|
|---------------------------|

Gtr.2 - palm muted on x2
|----------|----------|----------|---------|
|----------|----------|----------|---------|
|----------|----------|----------|---------|
|-66666666-|----------|----------|---------| x2
|-44444444-|-66666666-|-88888888-|-4444444-|
|----------|-44444444-|-66666666-|-2222222-|

Pre Chorus 2:

Both guitars
|----------|----------|----------|----------|         |----------|
|----------|----------|----------|----------|         |----------|
|----------|----------|----------|----------|         |----------|
|----------|----------|-88888888-|-88888888-| x2 then |----------|
|-88888888-|-66666666-|-66666666-|-66666666-|     p.m |-44444444-|
|-66666666-|-44444444-|----------|----------|         |-22222222-|

|----------|----------|----------|----------|
|----------|----------|----------|----------|
|----------|----------|----------|----------|
|-66666666-|-66666666-|----------|----------| x2
|-44444444-|-33333333-|-44444444-|-44444444-|
|----------|----------|-22222222-|-22222222-|

Chorus: 

Gtr.1
|---------|---------|---------|---------|
|------6--|------6--|------6--|------7--|
|----6----|----6----|----6----|----6----| 
|---------|---------|---------|--4------| x2
|--4------|---------|---------|---------|
|---------|--4------|--6------|---------|

|---------------|--------------|--------------|--------------|
|------6--7-6---|------6--7-6--|------6--7-6--|------7--6-7--|
|----6----------|----6---------|----6---------|----6---------|
|---------------|--------------|--------------|--4-----------|
|--4------------|--------------|--------------|--------------|
|---------------|--4-----------|--6-----------|--------------|

|---------------|--------------|--------------|-------------------|
|------6--7-6---|------6--7-6--|------6--7-6--|-------------------|
|----6----------|----6---------|----6---------|--66-55-66-55-6-8--|
|---------------|--------------|--------------|--44-44-44-44-4-6--|
|--4------------|--------------|--------------|-------------------|
|---------------|--4-----------|--6-----------|-------------------|

Gtr.2 - p.m. and comes on x3 of gtr.1
|----------|----------|----------|---------|
|----------|----------|----------|---------|
|----------|----------|----------|---------|
|-66666666-|----------|----------|---------| 
|-44444444-|-66666666-|-88888888-|-4444444-|
|----------|-44444444-|-66666666-|-2222222-|

|----------|----------|----------|
|----------|----------|----------|
|----------|----------|----------|
|-66666666-|----------|----------| 
|-44444444-|-66666666-|-88888888-|
|----------|-44444444-|-66666666-|

p.m ends here and play this
|-----------------|
|-----------------|
|-----------------|
|-----------------|
|-44-44-44-44-4-6-|
|-22-22-22-22-2-4-|

Verse:

Both guitars - play as staccato
|-----------------|-----------------|-----------------|-----------------|
|-----------------|-----------------|-----------------|-----------------|
|-----------------|-----------------|-----------------|-----------------|
|-6-6-6-6-6-6-6-6-|-----------------|-----------------|-----------------| 
|-4-4-4-4-4-4-4-4-|-6-6-6-6-6-6-6-6-|-8-8-8-8-8-8-8-8-|-4-4-4-4-4-4-4-4-|
|-----------------|-4-4-4-4-4-4-4-4-|-6-6-6-6-6-6-6-6-|-2-2-2-2-2-2-2-2-|

|----------------------|-----------------|-----------------|
|----------------------|-----------------|-----------------|
|-x11\-----------------|-----------------|-----------------|
|-xx---6-6-6-6-6-6-6-6-|-----------------|-----------------|
|-x9\--4-4-4-4-4-4-4-4-|-6-6-6-6-6-6-6-6-|-8-8-8-8-8-8-8-8-|
|----------------------|-4-4-4-4-4-4-4-4-|-6-6-6-6-6-6-6-6-|

|-----------------|
|-----------------|
|-----------------|
|-----------------|
|-4-4-4-4-4-4-4-4-|
|-2-2-2-2-2-2-2-2-|

Pre Chorus 1:

Pre Chorus 2:

Chorus:

Then they play the chorus again which is 
different,I have labeled it as chorus2

Chorus 2:

Gtr.1 - if u listen closly u
can hear gtr.1 playing this
|----------|----------|----------|----------|
|----------|----------|----------|----------|
|-66666666-|-66666666-|-66666666-|-66666666-|
|-xxxxxxxx-|-xxxxxxxx-|-xxxxxxxx-|-xxxxxxxx-| x3
|-44444444-|-44444444-|-44444444-|-44444444-|
|----------|----------|----------|----------|

|----------|----------|----------|----------|
|----------|----------|----------|----------|
|-66666666-|-66666666-|----------|----------|
|-xxxxxxxx-|-xxxxxxxx-|----------|----------| 
|-44444444-|-44444444-|-88888888-|-44444444-|
|----------|----------|-66666666-|-22222222-|

|-----------------|-----------------|----|
|-----------------|-----------------|----|
|-66-55-66-55-6-8-|-66-55-66-55-6-8-|----|
|-44-44-44-44-4-6-|-44-44-44-44-4-6-|-6~-|
|-----------------|-----------------|-4~-|
|-----------------|-----------------|----|

Gtr.2
|----------|----------|----------|---------|
|----------|----------|----------|---------|
|----------|----------|----------|---------|
|-66666666-|----------|----------|---------| x4
|-44444444-|-66666666-|-88888888-|-4444444-|
|----------|-44444444-|-66666666-|-2222222-|

|-----------------|-----------------|----|
|-----------------|-----------------|----|
|-----------------|-----------------|----|
|-----------------|-----------------|-6~-|
|-44-44-44-44-4-6-|-44-44-44-44-4-6-|-4~-|
|-22-22-22-22-2-4-|-22-22-22-22-2-4-|----|

The end!

God bless - mike.
 


/
How To Set Up Higher Praise As Your Home Page
Copyright 1999, Higher Praise HigherPraise,Inc. All rights reserved. Terms of Use

Enjoy A Life Changing Experience

 
 
 
HigherPraise, Higher Praise, HigherPraise, Higher Praise, HigherPraise

Members..Sign Up. LogIn

 
 

Higher Praise Other Sites
 
 

HigherPraise.org/
Praise And Worship
www.higherpraise.org

HigherPraise.net
Christian Resources
www.higherpraise.net

HigherPraiseTube.com
Videos And Audios
www.higherpraisetube.com.


ChristianLyrics.org

Lyrics And Chrords
www.christianlyrics.org

ChristianChordsLyrics

Lyrics And Chrords
www.christianchordslyrics.com

ChristianChordLyrics

Lyrics And Chrords
www.christianchordlyrics.com

WorshipLyrics.org
10.000 Illustrations
www.worshiplyrics.org

WorshipLyrics.net
10.000 Illustrations
www.worshiplyrics.net

PraiseLyrics.com
PowerPoint Lyrics

www.praiselyrics.com

PraiseLyrics.org
PowerPoint Lyrics

www.praiselyrics.org

1GodTube.com
Chistian Videos

www1godtube..com

OneGodTube.com
Chistian Videos

www.onegodtube..com

 

/
Copyright 1999 - 2019, Higher Praise™ HigherPraise™,Inc. All rights reserved. Terms of Use