Higher Praise - Guitar Chords, Lyrics  GuitarTabs -  Praise nad Worship Music And Christian Songs

Higher Praise - Guitar Tabs, Guitar Chords, Lyrics
   Lyrics, Chords And Tabs
   Popular Lyrics Chords Tab
   Power Point Lyrics
   Praise & Worship Music
   Christian Music Videos
   15900 Videos & Audios
   Midi Files
   Worship Questions
   Christmas Chords, Lyrics
   Lyrics, Chords Tabs Rated

Sermon Outlines And Audio Sermons
   9344 Sermon Outlines
   N.T. Sermon Outlines
   O.T. Sermon Outlines
   Special Guest Outlines
   10.000 Illustrations
   Sunday School Studies
   Bible College Studies
   Greatest Preachers
   Bible Research Tools
Audio Sermons
   2895 Audio Sermons
   85 Sermon Videos
   291 Special Guests Serm

   Complete Audio Bible
Higher Praise Sunday School Teaching
   Children's NT Studies
   Children's OT Studies

   98 Children's Midis
   Gospel For Kids Movie
   Children's JESUS Film
Higher Praise Christian Video Library ,Videos
   Christian Television
   TBN TV Live
   15,000 Videos - HP Tube
   712 Youth Music Vids
  Christian Video Library
   Praise Videos #1 & #2
   85 Sermon Videos
   Prophecy Film -Videos
   JESUS Film -Video
   Childrens JESUS Film
   Gospel For Kids Movie
   Passion Of The Christ
   Noah, Sodom, Sinai, Ark
   Tsunami Videos Photos
News And Information
   Testimonies
   Submit Lyrics, Tabs, Serm
   10.000 Illustrations
   Bible College Course
   Clipart & Web Graphics
   Greatest Preachers
   Complete Talking Bible
   Christian Chat Rooms
   Links Church Resource
   HP Statement Of Faith
Download Clipart
   Audio Sermons
   Clipart & Web Graphics
   Church Administration
   Bible Study Software
   Screen Savers Software
   Verse A Day Software
   Educational Games
   Trade Center Photos

   Soft. Search Engine
Higher Praise News
   Current News
    Archived News
   Submit News
   Newsletter   Higher Praise Interact Prayer
   Prayer For All Needs
   
Submit Lyrics, Sermons
   
Contact Higher Praise
   
Advertising 
   Privacy Policy
//
He Died For You,  Click For Answer! This Is Who Jesus Is Video

'
 
0-9 A B C D E F G H I J K L M N O P Q R S T U V W X Y Z
.

//
Click For Printable...Version Of This File
 

entire album


by Pillar - Where Do We Go From Here




Hey everyone, you're probably wondering what this is for. It's so nobody will
have to attempt to tab another Pillar song for this site by ear until their
next album comes out (which will be winter 2006, I think). I'm sorry if
anything is confusing, especially in Bring Me Down. It was difficult to find
the best way to write out all of this. So, without further to do, here we go...

***All guitars in all songs played in CGCFAD tuning***

Underslashes (___) will set off things that are played at the same time.
Sorry if any of this is confusing. :-S Look at carefully at what string what is
played on throughout this tab.

HYPNOTIZED

* = palm mute
x = mute string
-/- = shift slide
~/~ = legato slide
h = hammer on                          

INTRO 

Guitar 1 (clean, with delay and reverb)

Delay setting not specified

F|------2---------0---|-----0-------0---|------2---------0---|-----0----|------|
C|---0----0-0--3----0-|---0------3----3-|---0----0-0--3----0-|---0----0-|------|
G|--------------------|-3------1--------|--------------------|-3------1-|------|
C|-0------------------|-----------------|-0------------------|----------|------|
                                                                      ^ hold
VERSE 1 (play this whole thing 3 times)

Guitar 2 (clean)

F|----------2-2----------0-0----------|----------0-0----------0-0----------|
C|-----0-0------0-0--3-3------3-3-0-0-|-----0-0-----------3-3------3-3-----|
G|------------------------------------|-3-3----------1-1---------------1-1-|
C|-0-0--------------------------------|------------------------------------|
   ************************************************************************

F|----------2-2----------0-0----------|----------0-0------3-3-5-5--3-3-----|
C|-----0-0------0-0--3-3------3-3-0-0-|-----0-0------1-1---------------1-1-|
G|------------------------------------|-3-3--------------------------------|
C|-0-0--------------------------------|------------------------------------|
   ************************************************************************

then...

__________________________________________
Guitar 1

D|-10-\-6----5-|--------|
A|-x----x----x-|--------|
F|-7--\-3----2-|--------|
             ^ hold

Guitar 3 (clean)

F|-7-\-3----2-|-2~/~3~\~2----2~/~3~\~2-|
__________________________________________

CHORUS

Guitars 4 and 5 (both distortion)

C|----------------------------|------7-7-7-7-7-----7-7-7---|
G|-0----8-8-8-8-8-----8-8-8-0-|-5--------------8---------0-|
C|-0--------------0---------0-|-5--------------8---------0-|

F|----------------------------|--------------------5-----5-------|
C|----------------------------|--------------------5-----5-------|
G|-5----8-8-8-8-8-5---8-8-8---|----------5-5---------------5-5-5-|
C|-5--------------5---------0-|-3-3-3-3------3-/-8----8----5-5-5-|
                                *******          *    *

C|----------------------------|------7-7-7-7-7-----7-7-7---|
G|-0----8-8-8-8-8-0---8-8-8-0-|-5--------------8---------0-|
C|-0--------------0---------0-|-5--------------8---------0-|

_________________________________________________________________________
Guitar 4

F|----------------------------|---------------------5------5~/~7-7-7-|
C|----------------------------|---5------5---5h7----5------5~/~7-7-7-|
G|-5----8-8-8-8-8-----8-8-8---|--------------------------------------|
C|-5--------------5---------0-|-5---5-5----5------8---8-8------------|
                                *   ***    *      *   ***

Guitar 5

F|----------------------------|---------------------5-------------------|
C|----------------------------|---5------5---5h7----5------8~/~10-10-10-|
G|-5----8-8-8-8-8-----8-8-8---|----------------------------8~/~10-10-10-|
C|-5--------------5---------0-|-5---5-5----5------8---8-8--8~/~10-10-10-|
                                *   ***    *      *   ***
_________________________________________________________________________

INTERLUDE 1

_____________________________
Guitars 4 and 5

C|-0----|------|------|------|
G|-0----|------|------|------|
C|-0----|------|------|------|
   ^ hold

Guitar 1

D|-5----|------|-5----|-8---8-|
A|-3----|------|-3----|-6---5-|
_____________________________

VERSE 2 (play only 2 times this time)

Guitar 2

F|---------2-2---------0-0---------|----------0-0---------0-0--------
C|-----0-0-----0-0-3-3-----3-3-0-0-|-----0-0----------3-3-----3-3----
G|---------------------------------|-3-3----------1-1-------------1-1
C|-0-0-----------------------------|---------------------------------
   ******************************************************************

F|---------2-2---------0-0---------|----------0-0-----3-3-5-5-3-3----
C|-----0-0-----0-0-3-3-----3-3-0-0-|-----0-0------1-1-------------1-1
G|---------------------------------|-3-3-----------------------------
C|-0-0-----------------------------|---------------------------------
   ******************************************************************

then...again...

________________________________________
Guitar 1

D|-10-\-6----5-|--------|
A|-x----x----x-|--------|
F|-7--\-3----2-|--------|
             ^ hold

Guitar 3

F|-7-\-3----2-|-2~/~3~\~2----2~/~3~\~2-|
________________________________________

CHORUS

INTERLUDE 2

___________________________________
Guitars 4 and 5

C|-0----|------|------|------|
G|-0----|------|------|------|
C|-0----|------|------|------|
   ^ hold

Guitar 1

D|-5----|-8---8-|-5----|-8-/-10-\-|
A|-3----|-6---5-|-3----|-6-/-8--\-|
___________________________________

BRIDGE

____________________________________________________________________________
Guitars 4 and 5

G|-5------------7-7--8-8-8-8--7-7-7-7-|--------------7-7--8-8------7-7-7-7-|
C|---0-0-0--0-0-----------------------|-0-0-0-0--0-0----------7-7----------|
   ************************************************************************

C|------------------------------------|-----------------------7-0--5-5-5-5-|
G|--------------7-7--8-8-8-8--7-7-7-7-|----------5-5-7-7--8-8--------------|
C|-0-0-0-0--0-0-----------------------|-0-0-0-0----------------------------|
   **************************************************************

then Guitar 4 plays that again while Guitar 5 plays something a bit different...

G|--------------7-7--8-8-8-8--7-7-7-7-|--------------7-7--8-8------7-7-7-7-|
C|-0-0-0-0--0-0-----------------------|-0-0-0-0--0-0----------7-7----------|
   ************************************************************************

G|--------------7-7--8-8-8-8--7-7-7-7-|-0-0---0-0---0-0---0-0-0-0-|
C|-0-0-0-0--0-0-----------------------|-0-0---0-0---0-0---0-0-0-0-|
   ***********************************

and during all that, Guitar 1 plays this 4 times...

D|-5----|----|
A|-3----|----|
______________________________________________________________________________

Guitars 4 and 5

G|-0----5-5-7-7--8-8-8-8--7-7-7-7-|-0----5-5-7-7--8-8-0-0--7-7-7-7-|
C|-0------------------------------|-0------------------------------|

C|--------------------------------|-------------------7-0--5-5-5-5-|
G|-0----5-5-7-7--8-8-8-8--7-7-7-7-|-0----5-5-7-7--8-8--------------|
C|-0------------------------------|-0------------------------------|

G|-0----5-5-7-7--8-8-8-8--7-7-7-7-|-0----5-5-7-7--8-8-0-0--7-7-7-7-|
C|-0------------------------------|-0------------------------------|

C|--------------------------------|-------------------7-0--5-5-5-0-|
G|-0----5-5-7-7--8-8-8-8--7-7-7-7-|-0----5-5-7-7--8-8--------------|
C|-0------------------------------|-0------------------------------|

____________________________________________________________________________
Guitars 4 and 5

F|-8-8-8-8--8-8-8-8--8-8-8-8--8-8-8-8-|-5-5-5-5--5-5-5-5--5-5-5-5--5-5-5-5-|
C|-8-8-8-8--8-8-8-8--8-8-8-8--8-8-8-8-|-3-3-3-3--3-3-3-3--3-3-3-3--3-3-3-3-|
G|-6-6-6-6--6-6-6-6--6-6-6-6--6-6-6-6-|-3-3-3-3--3-3-3-3--3-3-3-3--3-3-3-3-|
C|------------------------------------|-3-3-3-3--3-3-3-3--3-3-3-3--3-3-3-3-|

and while that last line is being played, Guitar 1 plays this...

D|-------6------5---------------------|-------6------5---------------------|
A|-4----------------------------------|-6----------------------------------|
____________________________________________________________________________

CHORUS

then...

Guitars 4 and 5

C|----------------------------|------7-7-7-7-7-----7-7-7---|
G|-0----8-8-8-8-8-----8-8-8-0-|-5--------------8---------0-|
C|-0--------------0---------0-|-5--------------8---------0-|

C|----------------------------|---5---------------------------------|
G|-5----8-8-8-8-8-5---8-8-8-0-|-0---0-0--7-0-7h8--5-5-5-5-/-8-8-8-8-|
C|-5--------------5-----------|-------------------5-5-5-5-/-8-8-8-8-|
                            *   *   ***    *

C|----------------------------|------7-7-7-7-7-----7-7-7---|
G|-0----8-8-8-8-8-0---8-8-8-0-|-5--------------8---------0-|
C|-0--------------0---------0-|-5--------------8---------0-|

_________________________________________________________________________
Guitar 4

F|----------------------------|---------------------5------5~/~7-7-7-|
C|----------------------------|---5------5---5h7----5------5~/~7-7-7-|
G|-5----8-8-8-8-8-----8-8-8---|--------------------------------------|
C|-5--------------5---------0-|-5---5-5----5------8---8-8------------|
                                *   ***    *      *   ***

Guitar 5

F|----------------------------|---------------------5-------------------|
C|----------------------------|---5------5---5h7----5------8~/~10-10-10-|
G|-5----8-8-8-8-8-----8-8-8---|----------------------------8~/~10-10-10-|
C|-5--------------5---------0-|-5---5-5----5------8---8-8--8~/~10-10-10-|
                                *   ***    *      *   ***
_________________________________________________________________________

and then Guitar 1 finishes the song by playing these notes over and over
as it fades out...

D|----13----13-|
A|-------15----|
F|-14----------|


BRING ME DOWN

p = pull off
-/- = shift slide
~/~ = legato slide
* = palm mute
x = mute string
<> = natural harmonic
b r = bend and release

the first 5 is the note you are bending from, the 6 is the note you are bending
to, and the second 5 means you're "unbending" back to that note, the note you
originally bent from.

INTRO
___________________________________________________________________
Guitars 1 and 2 (both distortion)

F|----------------------5-5-----|-------------------------------|
C|-3-3-3--3-3-1-3--3-3--5-5-6-6-|-1-1--1-1--8-------------------|
G|-3-3-3--3-3-1-3--3-3--3-3-6-6-|-1-1--1-1--8-------------------|
C|-3-3-3--3-3-1-3--3-3------6-6-|-1-1--1-1--8--0-0-0--8p0-6-6-\-|

F|--------------------5-5-----|-------------------------------|
C|-3-3--3-3-1-3--3-3--5-5-6-6-|-1-1--1-1--8-------------------|
G|-3-3--3-3-1-3--3-3--3-3-6-6-|-1-1--1-1--8-------------------|
C|-3-3--3-3-1-3--3-3------6-6-|-1-1--1-1--8--0-0-0--8p0-6-6-\-|

F|--------------------5-5-----|-------------------------------|
C|-3-3--3-3-1-3--3-3--5-5-6-6-|-1-1--1-1--8-------------------|
G|-3-3--3-3-1-3--3-3--3-3-6-6-|-1-1--1-1--8-------------------|
C|-3-3--3-3-1-3--3-3------6-6-|-1-1--1-1--8--0-0-0--8p0-6-6-\-|

F|--------------------5-5-----|-----------12-|
C|-3-3--3-3-1-3--3-3--5-5-6-6-|-1-1--1-1--13-|
G|-3-3--3-3-1-3--3-3--3-3-6-6-|-1-1--1-1--11-|
C|-3-3--3-3-1-3--3-3------6-6-|-1-1--1-1--11-|
                                          ^ with phaser

Guitar 3 (distortion)

F|-5-5-5--5-5-3-5--5-5--5-5-----|-3-3--3-3---------------------|
C|--------------------------6-6-|------------------------------|

F|-5-5--5-5-3-5--5-5--5-5-----|-3-3--3-3---------------------|
C|------------------------6-6-|------------------------------|

F|-5-5--5-5-3-5--5-5--5-5-----|-3-3--3-3---------------------|
C|------------------------6-6-|------------------------------|

F|-5-5--5-5-3-5--5-5--5-5-----|-3-3--3-3---------------------|
C|------------------------6-6-|------------------------------|

Guitar 4 (clean)

F|-0---(held for 2 bars)---|   first 2 times only

Guitar 5 (distortion, with flanger [this part is hard to hear])

D|-----------------------------|-1--------|---1---------|-1--1-----|----------|
A|---------4 measures----------|-1--------|-1------4--3-|-1--------|--------2-|
F|-----------------------------|----------|-------------|----------|--------1-|
                                    played at the same time as phaser chord ^

VERSE 1

Guitars 1 and 2

C|------6-6------5-5------8-8-8-8-|----------8-8----------6----6-------|
G|-8-8------8-8------8-8----------|-6-6-6-6------6-6--4-4---4----4-----|
C|--------------------------------|--------------------------------6-6-|
   ***      ***      ***            *******           ***          ***

F|----------------------------------|--------------------------------6~\~5-|
C|--------6-6------5-5------8-8-8-8-|----------8-8----------6--6~/~8-------|
G|-8-8-8------8-8------8-8----------|-6-6-6-6------6-6--4-4----------------|
   *****      ***      ***            *******           ***

C|--------6-6------5-5------8-8-8-8-|----------8-8----------6----6-------|
G|-8-8-8------8-8------8-8----------|-6-6-6-6------6-6--4-4---4----4-----|
C|----------------------------------|--------------------------------6-6-|
   *****      ***      ***            *******           ***          ***

F|----------------------------------|--------------------------------6~\~5-|
C|--------6-6------5-5------8-8-8-8-|----------8-8----------6--6~/~8-------|
G|-8-8-8------8-8------8-8----------|-6-6-6-6------6-6--4-4----------------|
   *****      ***      ***            *******           ***

C|--------6-6------5-5------8-8-8-8-|----------8-8----------6----6-------|
G|-8-8-8------8-8------8-8----------|-6-6-6-6------6-6--4-4---4----4-----|
C|----------------------------------|--------------------------------6-6-|
   *****      ***      ***            *******           ***          ***

F|----------------------------------|-------------------6-|
C|--------6-6------5-5------8-8-8-8-|----------8-8------6-|
G|-8-8-8------8-8------8-8----------|-6-6-6-6------6-6--4-|
   *****      ***      ***            *******      ***

CHOURUS
_________________________________________________________________
Guitars 1 and 2

F|----------------------5-5-----|-------------------------------|
C|-3-3-3--3-3-1-3--3-3--5-5-6-6-|-1-1--1-1--8-------------------|
G|-3-3-3--3-3-1-3--3-3--3-3-6-6-|-1-1--1-1--8-------------------|
C|-3-3-3--3-3-1-3--3-3------6-6-|-1-1--1-1--8--0-0-0--8p0-6-6-\-|

A|----------------------------|--------------4-4-4--4~/~6-6-6-\-|
F|--------------------5-5-----|--------------6-6-6--6~/~8-8-8-\-|
C|-3-3--3-3-1-3--3-3--5-5-6-6-|-1-1--1-1--8--6-6-6--6~/~8-8-8-\-|
G|-3-3--3-3-1-3--3-3--3-3-6-6-|-1-1--1-1--8--4-4-4--4~/~6-6-6-\-|
C|-3-3--3-3-1-3--3-3------6-6-|-1-1--1-1--8---------------------|

F|--------------------5-5-----|-------------------------------|
C|-3-3--3-3-1-3--3-3--5-5-6-6-|-1-1--1-1--8-------------------|
G|-3-3--3-3-1-3--3-3--3-3-6-6-|-1-1--1-1--8-------------------|
C|-3-3--3-3-1-3--3-3------6-6-|-1-1--1-1--8--0-0-0--8p0-6-6-\-|

A|----------------------------|-----------------------------------|
F|--------------------5-5-----|---------------6-6-6-6~/~8-8--/-10-|< this note
C|-3-3--3-3-1-3--3-3--5-5-6-6-|-1-1--1-1--8-\-6-6-6-6~/~8-8----x--|drops out
G|-3-3--3-3-1-3--3-3--3-3-6-6-|-1-1--1-1--8-\-4-4-4-4~/~6-6--/-8--|after a while
C|-3-3--3-3-1-3--3-3------6-6-|-1-1--1-1--8-\---------------------|

Guitar 3

F|-5-5-5--5-5-3-5--5-5--5-5-----|-3-3--3-3---------------------|
C|--------------------------6-6-|------------------------------|

F|-5-5--5-5-3-5--5-5--5-5-----|-3-3--3-3---------------------|
C|------------------------6-6-|------------------------------|

F|-5-5--5-5-3-5--5-5--5-5-----|-3-3--3-3---------------------|
C|------------------------6-6-|------------------------------|

F|-5-5--5-5-3-5--5-5--5-5-----|-3-3--3-3---------------------|
C|------------------------6-6-|------------------------------|

and there's the big flanger part during the chorus, which is VERY hard to
hear...

Guitar 5

D|-13----------------------------------|-13-------------13-----------|
A|-13--13-13--13-13-13-13--13-13-13-13-|-13--13-13---13--------------|
F|-------------------------------------|-----------------------------|
C|-------------------------------------|---------------------13---12-|

D|----13--13-13-13-13--13-13-13-13--13-13-13-13-|-13-13-13-13--13-13-13-13-
A|--------13-13-13-13--13-13-13-13--13-13-13-13-|-13-13-13-13--13-13-13-13-
F|----------------------------------------------|--------------------------
C|-10-------------------------------------------|--------------------------

D--13-11----13-13-|
A--13-11----13-13-|

D|-----------13---------13-13-13-|-13-13--13-13-13-13-----------|
A|-13-13-13--------13---13-13-13-|-13-13--13-13-13-13-----------|
F|-------------------------------|------------------------------|
C|-------------------------------|----------------------13---12-|

D|----13-13--13-13-13-13--13-\--13--13-13-13-|-13-13--13-13-13--13-13--13-13-|
A|----13-13--13-13-13-13--13-\--13--13-13-13-|-13-13--13-13-13--13-13--13-13-|
F|-------------------------------------------|-------------------------------|
C|-10----------------------------------------|-------------------------------|
______________________________________________________________________________

VERSE 2

Guitars 1 and 2

C|------6-6------5-5------8-8-8-8-|----------8-8----------6----6-------|
G|-8-8------8-8------8-8----------|-6-6-6-6------6-6--4-4---4----4-----|
C|--------------------------------|--------------------------------6-6-|
   ***      ***      ***            *******           ***          ***

F|----------------------------------|--------------------------------6~\~5-|
C|--------6-6------5-5------8-8-8-8-|----------8-8----------6--6~/~8-------|
G|-8-8-8------8-8------8-8----------|-6-6-6-6------6-6--4-4----------------|
   *****      ***      ***            *******           ***

C|--------6-6------5-5------8-8-8-8-|----------8-8----------6----6-------|
G|-8-8-8------8-8------8-8----------|-6-6-6-6------6-6--4-4---4----4-----|
C|----------------------------------|--------------------------------6-6-|
   *****      ***      ***            *******           ***          ***
___________________________________________________________
F|----------------------------------|-------------------6-|
C|--------6-6------5-5------8-8-8-8-|----------8-8------6-|
G|-8-8-8------8-8------8-8----------|-6-6-6-6------6-6--4-|
   *****      ***      ***            *******

Guitar 3 plays this in the last bar...

F|----------------------------------|------------------<5>-|

and Guitar 6 (distortion) plays this...

F|----------------------------------|------------------<2.2>-|
______________________________________________________________
this note is played with a technique called "vibrato bar dive and return",
don't ask me what it means or how to do it, it says in the back of the book,
but it's confusing.

CHORUS, except this time the last measure is different (the flanger part also
drops out in the last measure this time). Guitars 1 and 2 divisi here...
_________________________________
Guitar 1

A|---------------4-4-4--4~/~6---|
F|---------------6-6-6--6~/~8---|
C|-1-1--1-1--8-\-6-6-6--6~/~8---|
G|-1-1--1-1--8-\-4-4-4--4~/~6---|
C|-1-1--1-1--8-\----------------|

Guitar 2

A|---------------4-4-4--4~/~6-6-|
F|---------------6-6-6--6~/~8-8-|
C|-1-1--1-1--8-\-6-6-6--6~/~8-8-|
G|-1-1--1-1--8-\-4-4-4--4~/~6-6-|
C|-1-1--1-1--8-\----------------|
_________________________________

INTERLUDE
________________________________________________________________
Guitar 1 (now slight distortion)

C|------------------------------|----------------------------3-|
G|------------------------------|----------------------------3-|
C|-3--1-3--3-3-1-3--1-3--3-1--3-|-3--1-3--3-3-1-3--1-3--3-1--3-|
   ********************************************

and while Guitar 1 does that, Guitar 3 does this...

F|------------------------------|----------------------------5-|
C|------------------------------|----------------------------6-|
________________________________________________________________

_______________________________________________________________________
Guitars 1 and 2

C|-1-3--3-3-1-3--1-3--3-1--3-|             |-1-3--3-3-1-3--1-3--3-3-3-|
G|-1-3--3-3-1-3--1-3--3-1--3-| < 3 times   |-1-3--3-3-1-3--1-3--3-3-3-|
C|-1-3--3-3-1-3--1-3--3-1--3-|             |-1-3--3-3-1-3--1-3--3-3-3-|
   *             *

Guitar 3 plays this at the same time as that...

F|-3-5--5-5-3-5--3-5--5-3--5-|
C|-5-6--6-6-5-6--5-6--6-5--6-|   4 times

and Guitar 5 (now without the flanger) plays this...

C|-6--5-6--6-6-5-6--5-6--6-5--6|-6--5-6--6-6-5-6--5-6--6-6-6-|
G|-----------------------------------------------------------|
______________________________________________________________________________

BRIDGE
_______________________________________________________________________________
Guitars 1 and 2

F|-6-6-6-6--6-6-6-6--6-6-6-6--6~/~8-8-8-|-6-6-6--6-6-6-6--6-6-6-6--6~/~8-8-8-\-|
C|-6-6-6-6--6-6-6-6--6-6-6-6--6~/~8-8-8-|-6-6-6--6-6-6-6--6-6-6-6--6~/~8-8-8-\-|
G|-4-4-4-4--4-4-4-4--4-4-4-4--4~/~6-6-6-|-4-4-4--4-4-4-4--4-4-4-4--4~/~6-6-6-\-|

C|-1-3--3-3-1-3--1-3--3-1--3-|-1-3--3-3-1-3--1-3--3-3-3-|   play all that twice
G|-1-3--3-3-1-3--1-3--3-1--3-|-1-3--3-3-1-3--1-3--3-3-3-|
C|-1-3--3-3-1-3--1-3--3-1--3-|-1-3--3-3-1-3--1-3--3-3-3-|
   *             *

the third time you play this...

F|-6-6-6-6--6-6-6-6--6-6-6-6--6~/~8-8-8-|-6-6-6--6-6-6-6--6-6-6-6--6~/~8-8-8-|
C|-6-6-6-6--6-6-6-6--6-6-6-6--6~/~8-8-8-|-6-6-6--6-6-6-6--6-6-6-6--6~/~8-8-8-|
G|-4-4-4-4--4-4-4-4--4-4-4-4--4~/~6-6-6-|-4-4-4--4-4-4-4--4-4-4-4--4~/~6-6-6-|

F|-6-6-6-6--6-6-6-6--6-6-6-6--6~/~8-8-8-\-|
C|-6-6-6-6--6-6-6-6--6-6-6-6--6~/~8-8-8-\-|
G|-4-4-4-4--4-4-4-4--4-4-4-4--4~/~6-6-6-\-|

--------------------------------------------------------------------------------

Guitar 3 plays this...

F|-6-6-6-6--6-6-6-6--6-6-6-6--6~/~8-8-8-|-6-6-6--6-6-6-6--6-6-6-6--6~/~8-8-8-\-|
C|-6-6-6-6--6-6-6-6--6-6-6-6--6~/~8-8-8-|-6-6-6--6-6-6-6--6-6-6-6--6~/~8-8-8-\-|
G|-4-4-4-4--4-4-4-4--4-4-4-4--4~/~6-6-6-|-4-4-4--4-4-4-4--4-4-4-4--4~/~6-6-6-\-|

F|-3-5--5-5-3-5--3-5--5-3--5-|-3-5--5-5-3-5--3-5--5-3-|   play all that twice
C|-5-6--6-6-5-6--5-6--6-5--6-|-5-6--6-6-5-6--5-6--6-5-|

the third time you play the same thing that Guitars 1 and 2 play the third time.

--------------------------------------------------------------------------------

Guitar 6 plays this...

F|-------8--------8--------8------------|-----8--------8--------8--5b6r5-5-|
C|-6-5-6----6-5-6----6-5-6----6~/~8-8-8-|-5-6----6-5-6----6-5-6------------|
   ^ Guitar 5 also hits this note and holds it throughout those two measures.

and when Guitar 6 hits that last note, Guitar 5 comes in again with this...

C|-6--5-6--6-6-5-6--5-6--6-5--6|-6--5-6--6-6-5-6--5-6--6-6-6-|   play all that
G|-----------------------------------------------------------|   twice

--------------------------------------------------------------------------------

the third time is a bit more complicated...

Guitar 6

F|-------8--------8--------8------------|-----8--------8--------8--------------|
C|-6-5-6----6-5-6----6-5-6----6~/~8-8-8-|-5-6----6-5-6----6-5-6----6~/~10-10-10|

F|-----8--------8--------8------------|
C|-5-6----6-5-6----6-5-6----6~/~8-8-8-|

Guitar 5

F|-6--------------------------------|------------------------------/-10-10-10-|
   ^ hold...
                                flanger back on
F|~\~6-----------------/-8-8-8-|-8-8-8-8--8-8-8-8--8-8-8-8-\-|
C|-----------------------------|-8-8-8-8--8-8-8-8--8-8-8-8-\-|
________________________________________________________________________________

CHORUS again, and again the last measure is different...
_________________________________
Guitars 1 and 2

A|-----------4-4-4-4--4-4-4-4-\-|
F|-----------6-6-6-6--6-6-6-6-\-|
C|-1-1--1-1--6-6-6-6--6-6-6-6-\-|
G|-1-1--1-1--4-4-4-4--4-4-4-4-\-|
C|-1-1--1-1---------------------|

and this time Guitar 5 doesn't cut out...

D|-13-13--13-13-13-13----13-|
A|-13-13--13-13-13-13----13-|
_________________________________

OUTRO
______________________________
Guitars 1 and 2

C|-1-3--3-3-1-3--1-3--3-1--3-|
G|-1-3--3-3-1-3--1-3--3-1--3-|   3 times
C|-1-3--3-3-1-3--1-3--3-1--3-|
   *             *

Guitar 3

F|-3-5--5-5-3-5--3-5--5-3--5-|
C|-5-6--6-6-5-6--5-6--6-5--6-|   3 times
______________________________
____________________
Guitars 1 and 2

C|-1-3--3-3-1-3----|
G|-1-3--3-3-1-3----|
C|-1-3--3-3-1-3----|
   *

Guitar 3

F|-3-5--5-5-3-5----|
C|-5-6--6-6-5-6----|


HOLDING ON

* = palm mute
x = mute string
-/- = shift slide
~/~ = legato slide
h = hammer on
p = pull off
() = grace note

INTRO
______________________________________________________________________
Guitar 1 (distortion)

C|-(6)~/~7--6-------(6)~/~7-6--6-6-|-4-(2)h4--2------(2)h4-2--4-6-|
G|-------9--9--9-9--------9-9--9-9-|-5-----5--5-5-5------5-5--5-7-|
               ***                              ***

C|-7-(6)~/~7--6-------(6)~/~7-6--9-9-|-6~/~7-7-7--7-7--0----|
G|-9-------9--9--9-9--------9-9--9-9-|-6~/~7-7-7--7-7--0----|
C|-----------------------------------|-6~/~7-7-7--7-7--0----|
                 ***

Guitar 2 (distortion)

C|-4---4--2------4-2------|-----2--2------2-2------|
G|-4---4--4------4-4--4-2-|-0---0--0------0-0--0-2-|
C|-4-4-4--4-4-4--4-4--4-2-|-0-0-0--0-0-0--0-0--0-0-|
     *      ***               *      ***

C|-----4--2------4-2--2-2-|----------------------|
G|-4---4--4------4-4--4-4-|-6~/~7-7-7--7-7--0----|
C|-4-4-4--4-4-4--4-4--4-4-|-6~/~7-7-7--7-7--0----|
     *      ***
     ^ in the book it says that this note isn't palm muted, but I think that
might be a misprint, because I'm pretty sure it is.

Guitar 3 (distortion)

F|-11-11-11-11--11-11-11-11--11-11-11-11--11-13-|-11-11-11-11--11-11-11-11-
C|-x--x--x--x---x--x--x--x---x--x--x--x---x--x--|-x--x--x--x---x--x--x--x--
G|-9--9--9--9---9--9--9--9---9--9--9--9---9--11-|-9--9--9--9---9--9--9--9--

F--11-11-11-11--11-13-|-14-14-14-14--14-14-14-14--13-13-13-16--16-16-16-\-|
C--x--x--x--x---x--x--|-x--x--x--x---x--x--x--x---x--x--x--x---x--x--x----|
G--9--9--9--9---9--11-|-12-12-12-12--12-12-12-12--11-11-11-14--14-14-14-\-|

F|-9-9-9-9--9-9-9-11-----|
C|-x-x-x-x--x-x-x-x------|
G|-7-7-7-7--7-7-7-9------|
______________________________________________________________________________

woo, and that's all together! then we have the verse...

VERSE 1

Guitars 1 and 2
------------------------------------------------------
C|-3~/~4~\~3~/~4--4h6--3~/~4~\~3~/~4--4h6-|
G|-3~/~4~\~3~/~4--4h6--3~/~4~\~3~/~4--4h6-|   2 times
C|-3~/~4~\~3~/~4--4h6--3~/~4~\~3~/~4--4h6-|
------------------------------------------------------

C|-0-0-6p0--6h7--0-0-6p0--6h7-|-0-0-6p0--6h7----7~/~9-9-9--2-|
G|-0-0-6p0--6h7--0-0-6p0--6h7-|-0-0-6p0--6h7----7~/~9-9-9--2-|
C|-0-0-6p0--6h7--0-0-6p0--6h7-|-0-0-6p0--6h7--0-7~/~9-9-9--2-|
                                              *
-------------------------------------------------------------
C|-3~/~4~\~3~/~4--4h6--3~/~4~\~3~/~4--4h6-|
G|-3~/~4~\~3~/~4--4h6--3~/~4~\~3~/~4--4h6-|   2 times again
C|-3~/~4~\~3~/~4--4h6--3~/~4~\~3~/~4--4h6-|
-------------------------------------------------------------

C|-0-0-6p0--6h7--0-0-6p0--6h7-|-0-0-6p0--6h7----7h9-9-9--7-9-9-|
G|-0-0-6p0--6h7--0-0-6p0--6h7-|-0-0-6p0--6h7----7h9-9-9--7-9-9-|
C|-0-0-6p0--6h7--0-0-6p0--6h7-|-0-0-6p0--6h7--x-7h9-9-9--7-9-9-|

C|-4~\~3~/~4--4h6--3~/~4~\~3~/~4--4h6-|
G|-4~\~3~/~4--4h6--3~/~4~\~3~/~4--4h6-|
C|-4~\~3~/~4--4h6--3~/~4~\~3~/~4--4h6-|

C|-3~/~4~\~3~/~4--4h6--3~/~4~\~3~/~4--4h6-|
G|-3~/~4~\~3~/~4--4h6--3~/~4~\~3~/~4--4h6-|
C|-3~/~4~\~3~/~4--4h6--3~/~4~\~3~/~4--4h6-|

C|-0-0-6p0--6h7--0-0-6p0--6h7-|-0-0-6p0--6h7----7h9-9-7--3-|
G|-0-0-6p0--6h7--0-0-6p0--6h7-|-0-0-6p0--6h7----7h9-9-7--3-|
C|-0-0-6p0--6h7--0-0-6p0--6h7-|-0-0-6p0--6h7--0-7h9-9-7--3-|
                                              *

CHORUS
______________________________________________________________________
Guitar 1

C|-4--(6)~/~7--6-------(6)~/~7-6--6-6-|-4-(2)h4--2------(2)h4-2--4-6-|
G|-4--------9--9--9-9--------9-9--9-9-|-5-----5--5-5-5------5-5--5-7-|
C|-4----------------------------------|------------------------------|
                  ***                              ***

F|-----------------------------------|--------------------4-4-4-|
C|-7-(6)~/~7--6-------(6)~/~7-6--6-6-|-6-4-4--4-4--2-2-2--4-4-4-|
G|-9-------9--9--9-9--------9-9--9-9-|-7-7-7--7-7--0-0-0--2-2-2-|
C|-----------------------------------|-------------0-0-0--------|
                 ***

C|-4--(6)~/~7--6-------(6)~/~7-6--6-6-|-4-(2)h4--2------(2)h4-2--4-6-|
G|-4--------9--9--9-9--------9-9--9-9-|-5-----5--5-5-5------5-5--5-7-|
C|-4----------------------------------|------------------------------|
                  ***                              ***

C|-7-(6)~/~7--6-------(6)~/~7-6--6-6-|-6-4-4--4-4--4----|
G|-9-------9--9--9-9--------9-9--9-9-|-7-7-7--7-7--5----|
                 ***

Guitar 2

C|-4---4--2------4-2--2-2-|-----2--2------2-2------|
G|-4-4-4--4------4-4--4-4-|-0---0--0------0-0--0-2-|
C|-4-4-4--4-4-4--4-4--4-4-|-0-0-0--0-0-0--0-0--0-2-|
     *      ***               *      ***

F|------------------------|-4-4-4--4-4---------4-4-4-|
C|-----4--2------4-2--2-2-|-4-4-4--4-4--2-2-2--4-4-4-|
G|-4---4--4------4-4--4-4-|-2-2-2--2-2--0-0-0--2-2-2-|
C|-4-4-4--4-4-4--4-4--4-4-|-2-2-2--2-2--0-0-0--------|
     *      ***

C|-4---4--2------4-2--2-2-|-----2--2------2-2------|
G|-4---4--4------4-4--4-4-|-0---0--0------0-0--0-2-|
C|-4-4-4--4-4-4--4-4--4-4-|-0-0-0--0-0-0--0-0--0-2-|
     *      ***               *      ***

F|------------------------|-4-4-4--4-4-------|
C|-----4--2------4-2--2-2-|-4-4-4--4-4--2----|
G|-4---4--4------4-4--4-4-|-2-2-2--2-2--0----|
C|-4-4-4--4-4-4--4-4--4-4-|-2-2-2--2-2--0----|
     *      ***

Guitar 3

F|-11-11-11-11--11-11-11-11--11-11-11-11--11-13-|-11-11-11-11--11-11-11-11-
C|-x--x--x--x---x--x--x--x---x--x--x--x---x--x--|-x--x--x--x---x--x--x--x--
G|-9--9--9--9---9--9--9--9---9--9--9--9---9--11-|-9--9--9--9---9--9--9--9--

F--11-11-11-11--11-13-|-14-\-11-11-11--11-11-11-11--14-14-14-14--13-13-13-|
C--x--x--x--x---x--x--|-x----x--x--x---x--x--x--x---x--x--x--x---x--x--x--|
G--9--9--9--9---9--11-|-12-\-9--9--9---9--9--9--9---12-12-12-12--11-11-11-|

F|-11-11-11-11--11-11-11-11--11-11-11-11--11-11-11-11-|-11-11-11-11-
C|-x--x--x--x---x--x--x--x---x--x--x--x---x--x--x--x--|-x--x--x--x--
G|-9--9--9--9---9--9--9--9---9--9--9--9---9--9--9--9--|-9--9--9--9--

F|-11-11-11-11--11-11-11-11--11-13-|-11-11-11-11--11-11-11-11--11-11-11-11-
C|-x--x--x--x---x--x--x--x---x--x--|-x--x--x--x---x--x--x--x---x--x--x--x--
G|-9--9--9--9---9--9--9--9---9--11-|-9--9--9--9---9--9--9--9---9--9--9--9--

F--11-13-|-14-14-14-14--14-14-14-14--14-14-14-14--14-14-14-|
C--x--x--|-x--x--x--x---x--x--x--x---x--x--x--x---x--x--x--|
G--9--11-|-12-12-12-12--12-12-12-12--12-12-12-12--12-12-12-|

F|13--13-13~/~14---11----|
C|x---x--x----x----x-----|
G|11--11-11~/~12---9-----|
______________________________________________________________________________

VERSE 2

Guitars 1 and 2

C|-4~\~3~/~4--4h6--3~/~4~\~3~/~4--4h6-|
G|-4~\~3~/~4--4h6--3~/~4~\~3~/~4--4h6-|
C|-4~\~3~/~4--4h6--3~/~4~\~3~/~4--4h6-|

C|-3~/~4~\~3~/~4--4h6--3~/~4~\~3~/~4--4h6-|
G|-3~/~4~\~3~/~4--4h6--3~/~4~\~3~/~4--4h6-|
C|-3~/~4~\~3~/~4--4h6--3~/~4~\~3~/~4--4h6-|

C|-0-0-6p0--6h7--0-0-6p0--6h7-|-0-0-6p0--6h7----7h9-9-7--3-|
G|-0-0-6p0--6h7--0-0-6p0--6h7-|-0-0-6p0--6h7----7h9-9-7--3-|   play all that
C|-0-0-6p0--6h7--0-0-6p0--6h7-|-0-0-6p0--6h7--0-7h9-9-7--3-|   twice
                                              *

CHORUS is exactly the same, except the last measure of Guitar 3's part...

F|13--13-13~/~14-\-11----|
C|x---x--x----x----x-----|
G|11--11-11~/~12-\-9-----|

INTERLUDE 1
_______________________________________________________________________________
Guitars 1 and 2

F|-------|-------|-9-----|-----------|-------|-------|-9-----|
C|-4-----|-0-----|-7-----|-9----12-\-|-4-----|-0-----|-7-----|
G|-4-----|-0-----|-7-----|-9----12-\-|-4-----|-0-----|-7-----|
C|-4-----|-0-----|-7-----|-9----12-\-|-4-----|-0-----|-7-----|

C|-9-9-9-9--9-9-9-9--12-12-12-12--12-12-12-|
G|-9-9-9-9--9-9-9-9--12-12-12-12--12-12-12-|
C|-9-9-9-9--9-9-9-9--12-12-12-12--12-12-12-|
     ************

Guitar 4 (distortion)

F|---------------------------------------------|------------7-7-----------7----|
C|----------------11-11---------------11-------|-0-7-7--6-6------7-7-6-6----7-7|
G|-9-12-12--11-11--------12-12-11-11-----12-12-|-------------------------------|

A|--------------------------------|---------------------------------10-|
F|---6-6------9-9--6-6------9-6-6-|-----7-7--6h7-7-7--7-9-7--9~/~11----|
C|-7------9-9----------9-9--------|-9-9--------------------------------|

F|---------------------------------------------|------------7-7-----------7----|
C|----------------11-11---------------11-------|-0-7-7--6-6------7-7-6-6----7-7|
G|-9-12-12--11-11--------12-12-11-11-----12-12-|-------------------------------|

A|--------------------------------|----------------------------------|
F|---6-6------9-9--6-6------9-6-6-|-----7-7--6h7-7-7--7-7-7-7--7-7-7-|
C|-7------9-9----------9-9--------|-9-9------------------------------|
________________________________________________________________________________

BRIDGE
____________________________________________________________________________
Guitars 1 and 2

F|----------------------|----------------------|-2---2--2-2--2-2--2-2-|
C|-4---4--4-4--4-4--4-4-|-0---0--0-0--0-0--0-0-|-2---2--2-2--2-2--2-2-|
G|-4---4--4-4--4-4--4-4-|-0---0--0-0--0-0--0-0-|-0-0-0--0-0--0-0--0-0-|
C|-4-4-4--4-4--4-4--4-4-|-0-0-0--0-0--0-0--0-0-|----------------------|
     *                      *                      *

F|-4---4--4--7--7-7-7-7-|----------------------|----------------------|
C|-4---4--4--7--7-7-7-7-|-4---4--4-4--4-4--4-4-|-0---0--0-0--0-0--0-0-|
G|-2-2-2--2--5--5-5-5-5-|-4---4--4-4--4-4--4-4-|-0---0--0-0--0-0--0-0-|
C|----------------------|-4-4-4--4-4--4-4--4-4-|-0-0-0--0-0--0-0--0-0-|
     *            ***       *                      *

F|-2---2--2-2--2-2--2-2-|-4-4-4-4--4-4-4-4--7-7-7--7-7-7-|
C|-2---2--2-2--2-2--2-2-|-4-4-4-4--4-4-4-4--7-7-7--7-7-7-|
G|-0-0-0--0-0--0-0--0-0-|-2-2-2-2--2-2-2-2--5-5-5--5-5-5-|
     *                      *   *    *****

Guitar 5 (distortion [this part is the hardest to hear])

D|-5--5--5-5--5-5--5-5-|-5--5--5-5--5-5--5-5-|-5--5--5-5--5-5--5-5-|
A|-8--8--8-8--8-8--8-8-|-7--7--7-7--7-7--7-7-|-5--5--5-5--5-5--5-5-|
F|-6--6--6-6--6-6--6-6-|-7--7--7-7--7-7--7-7-|-6--6--6-6--6-6--6-6-|

D|----------------|-5--5--5-5--5-5--5-5-|-5--5--5-5--5-5--5-5-|
A|-7--7--7------7-|-8--8--8-8--8-8--8-8-|-7--7--7-7--7-7--7-7-|
F|-7--7--7--9---7-|-6--6--6-6--6-6--6-6-|-7--7--7-7--7-7--7-7-|
C|-9--9--9--9---7-|---------------------|---------------------|

D|-5--5--5-5--5-5--5-5-|----------5-5-5--5-5-5-|
A|-5--5--5-5--5-5--5-5-|-7--7--7--7-7-7--7-7-7-|
F|-6--6--6-6--6-6--6-6-|-7--7--7--7-7-7--7-7-7-|
C|---------------------|-9--9--9---------------|

Guitar 4 (this part is also pretty hard to hear)

D|----------------------|----------------7-7--|-9--9--9~\~7-9--9~\~7-9--9~\~7-|
A|---------------9~/~10-|-7--------------x-x--|-x--x--x---x-x--x---x-x--x---x-|
F|---------------x---x--|-x--------------4-4--|-6--6--6~\~4-6--6~\~4-6--6~\~4-|
C|-7-------------6~/~7--|-4-------------------|-------------------------------|

D|-10-10--9~/~10-7--7-7-7-9--9-9-|-------------------|-------------------7-7-|
A|-x--x---x---x--x--x-x-x-x--x-x-|-10-----------9-10-|-7-----------------x-x-|
F|-7--7---6~/~7--4--4-4-4-6--6-6-|-x------------x-x--|-x-----------------4-4-|
C|-------------------------------|-7------------6-7--|-4---------------------|

D|-9--9--9~\~7-9--9~\~7-9--9~\~7-|-10-10-10--9~/~10-10-10--12-12-12-12-
A|-x--x--x---x-x--x---x-x--x---x-|-x--x--x---x---x--x--x---x--x--x--x--
F|-6--6--6~\~4-6--6~\~4-6--6~\~4-|-7--7--7---6~/~7--7--7---9--9--9--9--

D--12-12-12-\-|
A--x--x--x----|
F--9--9--9--\-|
______________________________________________________________________________

INTERLUDE 2
_____________________________________________________________________________
Guitars 1 and 2

C|-4-----|-0-----|-4-----|-2-2-2-2--2-2-2-2--2-2-2-2--2-2-2-|
G|-4-----|-0-----|-4-----|-2-2-2-2--2-2-2-2--2-2-2-2--2-2-2-|
C|-4-----|-0-----|-4-----|-2-2-2-2--2-2-2-2--2-2-2-2--2-2-2-|
                             **************

Guitar 5

D|-------|-5-----|-------|------------------------------------|
A|-7-----|-7-----|-7-----|-7------------7-7--7-7-7-7--7-7-7-7-|
F|-6-----|-7-----|-6-----|-9------------9-9--9-9-9-9--9-9-9-9-|
C|-7-----|-------|-7-----|-9------------9-9--9-9-9-9--9-9-9-9-|
G|-------|-------|-------|-7------------7-7--7-7-7-7--7-7-7-7-|

Guitar 4

C|------(0)h4--2----|------(0)h4--2----|------(0)h4--2----2-|
G|------------------|------------------|--------------------|
C|-4--4-------------|-0--0-------------|-4--4---------------|
____________________________________________________________________________

CHORUS is the same, except for the last measure of Guitar 3's part (again). I'm
also including it's part in the first measure of the outro chorus before it
drops out...

F|-13-13-13~\~11-/-18-18-18-18--18-18-18-18-|-18-\-------------|
C|-x--x--x----x----x--x--x--x---x--x--x--x--|-x----------------|
G|-11-11-11~\~9--/-16-16-16-16--16-16-16-16-|-16-\-------------|

OUTRO CHORUS

Guitars 1 and 2
______________________________________________________________________________
C|-4-4------2-2--2------2-2-|-2-2------2-2--2------0-2-|-2-2------2-2--2-----
G|-4-4------4-4--4------4-4-|-0-0------0-0--0------0-2-|-4-4------4-4--4-----
C|-4-4-4-4--4-4--4-4-4--4-4-|-0-0-0-0--0-0--0-0-0--0-2-|-4-4-4-4--4-4--4-4-4-
       ***         ***            ***         ***            ***         ***

F------|-----------------4-4-|--------------------------|---------------------
C--2-2-|-4-4-4--4-4--0---4-4-|-4-4------2-2--2------2-2-|-2-2------2-2--2-----
G--4-4-|-2-2-2--2-2--0---2-2-|-4-4------4-4--4------4-4-|-0-0------0-0--0-----
C--4-4-|-2-2-2--2-2--0-------|-4-4-4-4--4-4--4-4-4--4-4-|-0-0-0-0--0-0--0-0-0-
                                   ***         ***            ***         ***

C--0-2-|-2-2------2-2-----------2---2-|---4---4----4--0-----|
G--0-2-|-4-4------4-4--4-4-4-4--4---4-|-2-2-2-2--2-2--0-----|
C--0-2-|-4-4-4-4--4-4--4-4-4-4--4-4-4-|-2-2-2-2--2-2--0-----|
             ***       *******    *         *    *

Guitar 5 (hard to hear)

D|--------------------------|-5---5-5--5-5--5-5-|--------------------------|
A|------10-10--10-10--10-10-|-7---7-7--7-7--7-7-|-10---10-10--10-10--10-10-|
F|------9--9---9--9---9--9--|-7---7-7--7-7--7-7-|-9----9--9---9--9---9--9--|
C|------x--x---x--x---x--x--|-7---7-7--7-7--7-7-|-x----x--x---x--x---x--x--|
G|------9--9---9--9---9--9--|-------------------|-9----9--9---9--9---9--9--|

A|-10-10--10-10-------------|-10---10-10--10-10--10-10-|-10---10-10--10-10-
F|-9--9---9--9--------------|-9----9--9---9--9---9--9--|-9----9--9---9--9--
C|-x--x---x--x--------------|-x----x--x---x--x---x--x--|-0----0--0---0--0--
G|-9--9---9--9--------------|-9----9--9---9--9---9--9--|-------------------

A--10-10-|-10---10-----10-|-7-7-7--7--7-----|
F--9--9--|-9----9------9--|-9-9-9--9--7-----|
C--0--0--|-x----x------x--|-9-9-9--9--7-----|
G--------|-9----9------9--|-7-7-7--7--------|
________________________________________________________________________________


LET IT OUT

x = mute string
* = palm mute
-/- = shift slide
~/~ = legato slide
b r = bend and release
h = hammer on
() = grace note
[] = with pick and finger

VERSE 1
_______________________________________________________________________________
Guitar 1 (clean, with amp tremelo)

D|----------|-------|--------|-----------|----------|-------|--------|-14-----|
A|----------|-------|--------|-----------|----------|-------|-14-----|-12-----|
F|----------|-------|--------|-----------|----------|-------|-11-----|--------|
C|-11-----\-|-7-----|-11-----|-7----9----|-11-----\-|-7-----|--------|--------|

Guitar 2 (clean, with amp tremelo)

F|----------|-------|--------|-----------|----------|-------|--------|-11-----|
C|-7--------|-4-----|-7------|-4----6----|-7--------|-4-----|-11-----|-9------|
G|-4--------|-0-----|-4------|-0----2----|-4--------|-0-----|-9------|-9------|
C|-4--------|-0-----|-4------|-0----2----|-4--------|-0-----|-9------|-9------|
_______________________________________________________________________________

VERSE 1 cont.
_______________________________________________________________________________
Guitar 3 (clean)

F|-(9)~/~11-----|--------9h11-|------------|
C|--------------|-------------|-9~/~11-----|

Guitar 1

D|----------|-------|--------|-----------|----------|-------|--------|-[9]-----|
A|----------|-------|--------|-----------|----------|-------|-14-----|---------|
F|----------|-------|--------|-----------|----------|-------|-11-----|-[9]-----|
C|-11-----\-|-7-----|-11-----|-7----9----|-11-----\-|-7-----|--------|---------|

Guitar 2

C|-7--------|-4-----|-7------|-4----6----|-7--------|-4-----|-11-----|-11-----|
G|-4--------|-0-----|-4------|-0----2----|-4--------|-0-----|-9------|-7------|
C|-4--------|-0-----|-4------|-0----2----|-4--------|-0-----|-9------|-7------|

Guitar 4 (distortion)

G|----------|-------|--------|-----------|----------|-------|--------|---16-\-|
C|----------|-------|--------|-----------|----------|-------|--------|---16-\-|
_______________________________________________________________________________

CHORUS

Guitar 4

F|------------------------|--------6b7r6------6----6b7r6-|------------
C|-4-2-4--x-4--4-2-4--x-4-|--------x----------x----x-----|-4-2-4--x-4-
G|-4-2-4--x-4--4-2-4--x-4-|-0-0-0--4b5r4------4----4b5r4-|-4-2-4--x-4-
C|-4-2-4--x-4--4-2-4--x-4-|-0-0-0---------0-0---0--------|-4-2-4--x-4-
                            *****         ***   *

D-------------|--------------2--2-2-2----|------------------------|
A-------------|--------------5--5-5-5----|------------------------|
F-------------|--------------4--4-4-4----|------------------------|
C--4-2-4--x-4-|-7-7-7-9--9-9-2--2-2-2--0-|-4-2-4--x-4--4-2-4--x-4-|
G--4-2-4--x-4-|-7-7-7-9--9-9-2--2-2-2--0-|-4-2-4--x-4--4-2-4--x-4-|
C--4-2-4--x-4-|-7-7-7-9--9-9-2--2-2-2--0-|-4-2-4--x-4--4-2-4--x-4-|
                ************

F|--------6b7r6------6----/-9-9-9-|-9-9-9-9--x-9-x-x--9-9-9-9--x-9-x-x-|
C|--------x----------x------x-x-x-|-7-7-7-7--x-7-x-x--7-7-7-7--x-7-x-x-|
G|-0-0-0--4b5r4------4----/-7-7-7-|-7-7-7-7--x-7-x-x--7-7-7-7--x-7-x-x-|
C|-0-0-0---------0-0---0----------|-7-7-7-7--x-7-x-x--7-7-7-7--x-7-x-x-|
   *****         ***   *

C|-----------------4--------|
G|------9----------0----0-2-|
C|-9h11---11--9h11-0----0-2-|
                        *

INTERLUDE
_______________________________________________________________________________
Guitar 4

C|-7-----|--------|
G|-4-----|--------|
C|-4-----|--------|
   ^ hold

Guitar 3

F|-(9)~/~11------9h11-|----------------|------9------9----|------------------|
C|--------------------|-9~/~11-------\-|-/-7-----7-6----6-|-(2)~/~4--(4)~/~6-|

F|-------------|   < first measure of VERSE 2
C|-(6)~/~7-----|

Guitar 1

D|----------|-------|--------|-----------|
A|----------|-------|--------|-----------|
F|----------|-------|--------|-----------|
C|-11-----\-|-7-----|-11-----|-7----9----|

Guitar 2

F|----------|-------|--------|-----------|
C|-7--------|-4-----|-7------|-4----6----|
G|-4--------|-0-----|-4------|-0----2----|
C|-4--------|-0-----|-4------|-0----2----|
________________________________________________________________________________

VERSE 2
________________________________________________________________________________
Guitar 1

D|----------|-------|--------|-----------|----------|-------|--------|-[9]-----|
A|----------|-------|--------|-----------|----------|-------|-14-----|---------|
F|----------|-------|--------|-----------|----------|-------|-11-----|-[9]-----|
C|-11-----\-|-7-----|-11-----|-7----9----|-11-----\-|-7-----|--------|---------|

Guitar 2

C|-7--------|-4-----|-7------|-4----6----|-7--------|-4-----|-11-----|-11-----|
G|-4--------|-0-----|-4------|-0----2----|-4--------|-0-----|-9------|-7------|
C|-4--------|-0-----|-4------|-0----2----|-4--------|-0-----|-9------|-7------|

Guitar 4

G|----------|-------|--------|-----------|----------|-------|--------|---16-\-|
C|----------|-------|--------|-----------|----------|-------|--------|---16-\-|
_______________________________________________________________________________

CHORUS is the same this time except for the last measure...

Guitar 4

C|-----------------4-----|
G|------9----------0-----|
C|-9h11---11--9h11-0-----|

BRIDGE

Guitar 4

C|--------------4---------4-4-|--------------4---------4-4-|--------------6-
G|--------------0---------0-0-|--------------0---------2-2-|--------------7-
C|-0-0-0-0--0-0----0-0-0------|-0-0-0-0--0-0----0-0-0--2-2-|-4-4-4-4--4-4---
   ************    *****        ************    *****        ************

C---------6-6-|--------------6---------4-4-|--------------4---------4-4-|
G---------7-7-|--------------7---------2-2-|--------------0---------0-0-|
C--4-4-4------|-4-4-4-4--4-4----4-4-4--2-2-|-0-0-0-0--0-0----0-0-0------|
   *****        ************    *****        ************    *****

C|--------------4---------4-4-|--------------6---------6-6-|----------6-6-6-6-
G|--------------0---------2-2-|--------------7---------7-7-|----------7-7-7-7-
C|-0-0-0-0--0-0----0-0-0--2-2-|-4-4-4-4--4-4----4-4-4------|-4-4-4-4--4-4-4-4-
   ************    *****        ************    *****        *******

C--6-6-6-6--4-4-4-4-|
G--7-7-7-7--2-2-2-2-|
C--4-4-4-4--2-2-2-2-|

BRIDGE cont.
_______________________________________________________________________________
Guitar 3 (now with distortion)

F|-11-11-11-11---11-11--11-11---11-11-11-11-|-11-11-11-11--11-11-11--11-11-11-
C|-x--x--x--x----x--x---x--x----x--x--x--x--|-x--x--x--x---x--x--x---x--x--x--
G|-9--9--9--9----9--9---9--9----9--9--9--9--|-9--9--9--9---9--9--9---9--9--9--

F--(11)~/~13-13-13-13-|-13~/~14-14-14--14-14-14--14-14-14-14--14-14-14-14-|
C---x-----x--x--x--x--|-x----x--x--x---x--x--x---x--x--x--x---x--x--x--x--|
G--(9)~/~-11-11-11-11-|-11~/~12-12-12--12-12-12--12-12-12-12--12-12-12-12-|

F|-14-14-14-14--14-14-14--14-14-14-14--14-13-13-13-|-13-11-11-11--11-11-11-
C|-x--x--x--x---x--x--x---x--x--x--x---x--x--x--x--|-x--x--x--x---x--x--x--
G|-12-12-12-12--12-12-12--12-12-12-12--12-11-11-11-|-11-9--9--9---9--9--9--

F--11-11-11--11-11-11-11-|-11-11-11-11--11-11-11--11-11-11--11~/~13-13-13-|
C--x--x--x---x--x--x--x--|-x--x--x--x---x--x--x---x--x--x---x----x--x--x--|
G--9--9--9---9--9--9--9--|-9--9--9--9---9--9--9---9--9--9---9~/~-11-11-11-|

F|-13~/~14-14-14---14-14--14-14-14-14--14-14-14-14-|-14-14-14-14--14-14-14-14-
C|-x----x--x--x----x--x---x--x--x--x---x--x--x--x--|-x--x--x--x---x--x--x--x--
G|-11~/~12-12-12---12-12--12-12-12-12--12-12-12-12-|-12-12-12-12--12-12-12-12-

F--14-14-14-14-|
C--x--x--x--x--|
G--12-12-12-12-|

Guitar 4

C|-4-4-4-4---4-4--4-4---4-4-4-4-|-4-4-4-4---4-4--4-4-4--6-6-6-6-|-7-7-7-7---7-7-
G|-0-0-0-0---0-0--0-0---0-0-0-0-|-0-0-0-0---0-0--0-0-0--2-2-2-2-|-4-4-4-4---4-4-
C|-0-0-0-0---0-0--0-0---0-0-0-0-|-0-0-0-0---0-0--0-0-0--2-2-2-2-|-4-4-4-4---4-4-

C--7-7---7-7-7-7-|-7-7-7-7--7-7-7--7-7-7-7--6-6-6-6-|-4-4-4-4--4-4-4--4-4-4-
G--4-4---4-4-4-4-|-4-4-4-4--4-4-4--4-4-4-4--2-2-2-2-|-0-0-0-0--0-0-0--0-0-0-
C--4-4---4-4-4-4-|-4-4-4-4--4-4-4--4-4-4-4--2-2-2-2-|-0-0-0-0--0-0-0--0-0-0-

C--4-4-4-4-|-4-4-4-4---4-4--4-4-4--6-6-6-6-|-7-7-7-7--7-7-7--7-7-7--7-7-7-7-|
G--0-0-0-0-|-0-0-0-0---0-0--0-0-0--2-2-2-2-|-4-4-4-4--4-4-4--4-4-4--4-4-4-4-|
C--0-0-0-0-|-0-0-0-0---0-0--0-0-0--2-2-2-2-|-4-4-4-4--4-4-4--4-4-4--4-4-4-4-|

C|-7-7-7-7--7-7-7-7--7-7-7-7-|
G|-4-4-4-4--4-4-4-4--4-4-4-4-|
C|-4-4-4-4--4-4-4-4--4-4-4-4-|
________________________________________________________________________________

FINAL CHORUS

Guitar 4

F|------------------------|--------6b7r6------6----6b7r6-|------------
C|-4-2-4--x-4--4-2-4--x-4-|--------x----------x----x-----|-4-2-4--x-4-
G|-4-2-4--x-4--4-2-4--x-4-|-0-0-0--4b5r4------4----4b5r4-|-4-2-4--x-4-
C|-4-2-4--x-4--4-2-4--x-4-|-0-0-0---------0-0---0--------|-4-2-4--x-4-
                            *****         ***   *

D-------------|--------------2--2-2-2----|------------------------|
A-------------|--------------5--5-5-5----|------------------------|
F-------------|--------------4--4-4-4----|------------------------|
C--4-2-4--x-4-|-7-7-7-9--9-9-2--2-2-2--0-|-4-2-4--x-4--4-2-4--x-4-|
G--4-2-4--x-4-|-7-7-7-9--9-9-2--2-2-2--0-|-4-2-4--x-4--4-2-4--x-4-|
C--4-2-4--x-4-|-7-7-7-9--9-9-2--2-2-2--0-|-4-2-4--x-4--4-2-4--x-4-|
                ************

F|--------6r7r6------6----/-9-9-9-|-9-9-9-9--x-9-x-x--9-9-9-9--x-9-x-x-|
C|--------x----------x------x-x-x-|-7-7-7-7--x-7-x-x--7-7-7-7--x-7-x-x-|
G|-0-0-0--4r5r4------4----/-7-7-7-|-7-7-7-7--x-7-x-x--7-7-7-7--x-7-x-x-|
C|-0-0-0---------0-0---0----------|-7-7-7-7--x-7-x-x--7-7-7-7--x-7-x-x-|
   *****         ***   *

F|--------7-7-7-7---------9-9-9-9-|--------11-11-11----11~/~13-13-13-
C|-0-0-0--x-x-x-x--0-0-0--x-x-x-x-|-0-0-0--x--x--x--0--x----x--x--x--
G|-0-0-0--5-5-5-5--0-0-0--7-7-7-7-|-0-0-0--9--9--9--0--9~/~-11-11-11-
C|-0-0-0-----------0-0-0----------|-0-0-0-----------0--0----0--0--0--

F--13-13-13-13-|
C--x--x--x--x--|
G--11-11-11-11-|
C--0--0--0--0--|

OUTRO

C|-7-7-7--x-7--7-7-7--x-7-|-7-7-7--x-7--7-7-7-7--x-6-|
G|-4-4-4--x-4--4-4-4--x-4-|-4-4-4--x-4--4-4-4-4--x-2-|   2 times
C|-4-4-4--x-4--4-4-4--x-4-|-4-4-4--x-4--4-4-4-4--x-2-|

C|-7-7-7--x-7-7--7-7-7--x-7-7-|-7-7-7--x-7-x--7-7-7-7--x-6-|-4--------|
G|-4-4-4--x-4-4--4-4-4--x-4-4-|-4-4-4--x-4-x--4-4-4-4--x-2-|-0--------|
C|-4-4-4--x-4-4--4-4-4--x-4-4-|-4-4-4--x-4-x--4-4-4-4--x-2-|-0--------|


SIMPLY

* = palm mute
x = mute string
() = grace note
h = hammer on
p = pull off
b r = bend and release
-/- = shift slide

I'm not going to do the little feedback parts that appear throughout this song,
they're rather complicated.

INTRO

Guitars 1 and 2 both have feedback parts to start, and then Guitar 3 comes in in
the ninth measure...

Guitar 3 (clean, with delay)

Delay set for dotted quarter-note regeneration with 2 repeats

C|----------3---|--------|----------5---|--------|----------7---|--------|
G|-5-5-3-5------|--------|-5-5-3-5------|--------|-5-5-3-5------|--------|
   **********************************************************************

C|----------5---|--------|----------3-------|-------5---------|
G|-5-5-3-5------|--------|-5-5-3-5------5-5-|-5-3-5-----5-3-3-|
   ***********************************************************

C|----------7-------|-------5--------|----------3------|-------5--------|
G|-5-5-3-5----5-5-5-|-5-3-5------3-3-|-5-5-3-5-------5-|---3-5------3-3-|
  **********************************************************************

C|----------7------|-------5--------|
G|-5-5-3-5-----5-5-|-5-3-5------3-3-|
  **********************************

INTRO cont.

Guitar 4 (clean, with delay)

Delay set for eighth-note regeneration with 5 repeats

A|---10-------10----10-------10-|----10---------10----10-------10-|
F|-7----7---7-----9----9---9----|-10----10---10-----9----9---9----|   2 times
C|--------7--------------7------|----------7---------------7------|
   *    *****     *    *****      **    *******     *    *****

VERSE 1

Guitar 2

A|---10-------10----10-------10-|----10---------10----10-------10-|
F|-7----7---7-----9----9---9----|-10----10---10-----9----9---9----|   4 times
C|--------7--------------7------|----------7---------------7------|
   *    *****     *    *****      **    *******     *    *****

A|-10----------10------|-8------------|
F|-7-------(7)h9-------|-5------------|   2 times
C|---------------------|-5------------|

CHORUS

Guitar 5 (distortion)

C|------------10----------------|-12-12------10-10-10-0-|-3-5--5-0--3-5--5b6r5-
G|---------------------------10-|-8--8--8-8--12-12-12-0-|-3-5--5-0--3-5--5b6r5-
C|-12-0-10-12-----12-0-10-12----|-8--8--8-8--8--8--8--0-|-3-5--5-0--3-5--5b6r5-
                                        ***

C--0-|-3-3-3--12-12-12-12-12-12-|------------10----------------|-12-12-----
G--0-|-3-3-3--10-10-10-10-10-10-|---------------------------10-|-8--8--8-8-
C--0-|-3-3-3--10-10-10-10-10-10-|-12-0-10-12-----12-0-10-12----|-8--8--8-8-
                                                                       ***

F-------------|------------------------|------------5-5-|
C--10-10-10-0-|-3-5--5-0--3-5--5b6r5-0-|-3-3-3------5-5-|
G--12-12-12-0-|-3-5--5-0--3-5--5b6r5-0-|-3-3-3--3-3-3-3-|
C--8--8--8--0-|-3-5--5-0--3-5--5b6r5-0-|-3-3-3--2-2-2-2-|
                                                ***

INTERLUDE

Guitar 5

C|-0------------|------------|------------|------------|
G|-0------------|------------|------------|------------|
C|-0------------|------------|------------|------------|
   ^ hold

Guitar 2 has a feedback thing, and Guitar 1 (distortion) goes...

A|--------------|------------|-----------------|-----3-------|
F|--------------|------------|-----------------|-------------|
C|--------------|------------|-/-7------5------|-3-------2---|
G|--------------|------------|-----------------|-------------|

VERSE 2 is the same is VERSE 1, except right before the chorus Guitar 5 does
this...

C|-------x-x--x-x-x-|
G|-------x-x--x-x-x-|
C|-------x-x--x-x-x-|

CHORUS is the same except for the last measure...

Guitar 5

F|--------5-5-5-5-5-|
C|-3-3-3--5-5-5-5-5-|
G|-3-3-3--3-3-3-3-3-|
C|-3-3-3--2-2-2-2-2-|

BRIDGE
_______________________________________________________________________________
Guitar 5

G|------------------------------------------|----------------------5-5-5-5-5-5-|
C|-0-0------------------0-0-----------------|-0-0------------------6-6-6-6-6-6-|
   ***                  ***                   ***

F|------------------------------------------|--------------------------0----|
C|------------------------------------------|--------------------------2----|
G|------------------------------------------|--------------------------4----|
C|-0-0------------------0-0-----------------|-0-0------------------0-0------|
   ***                  ***                   ***                  ***

Guitar 6 (distortion)

F|-----(7)b8r7-(7)b8r7------(7)b8r7-(7)b8r7-|-----(7)b8r7-(7)b8r7--7-7-7-7-7-7-|
C|------x-------x------------x-------x------|------x-------x-------x-x-x-x-x-x-|
G|-----(5)b6r5-(7)b8r7------(5)b6r5-(5)b6r5-|-----(5)b6r5-(5)b6r5--5-5-5-5-5-5-|

F|-----(7)b8r7-(7)b8r7------(7)b8r7-(7)b8r7-|-----(7)b8r7-(7)b8r7-
C|------x-------x------------x-------x------|------x-------x------
G|-----(5)b6r5-(5)b6r5------(5)b6r5-(5)b6r5-|-----(5)b6r5-(5)b6r5-

F--11-11-11-11-11--|
C--x--x--x--x--x---|
G--9--9--9--9--9---|
________________________________________________________________________________

BRIDGE cont.

Guitar 5

C|-----7------5-|-----5------7-|
G|---5------3---|---3------5---|
C|-0------2-----|-3------5-----|
_____________________________________________________________________________
Guitar 5

F|------------------------------------------|--------------------------0----|
C|------------------------------------------|--------------------------2----|
G|------------------------------------------|--------------------------4----|
C|-0-0------------------0-0-----------------|-0-0------------------0-0------|
   ***                  ***                   ***                  ***

Guitar 6

F|-----(7)b8r7-(7)b8r7------(7)b8r7-(7)b8r7-|-----(7)b8r7-(7)b8r7-
C|------x-------x------------x-------x------|------x-------x------
G|-----(5)b6r5-(5)b6r5------(5)b6r5-(5)b6r5-|-----(5)b6r5-(5)b6r5-

F--11-11-11-11-11--|
C--x--x--x--x--x---|
G--9--9--9--9--9---|
_______________________________________________________________________________

Guitar 5

C|-----7------5-|-----5------7-|
G|---5------3---|---3------5---|
C|-0------2-----|-3------5-----|
_____________________________________________________________________________
Guitar 5

F|------------------------------------------|--------------------------0----|
C|------------------------------------------|--------------------------2----|
G|------------------------------------------|--------------------------4----|
C|-0-0------------------0-0-----------------|-0-0------------------0-0------|
   ***                  ***                   ***                  ***

Guitar 6

F|-----(7)b8r7-(7)b8r7------(7)b8r7-(7)b8r7-|-----(7)b8r7-(7)b8r7-
C|------x-------x------------x-------x------|------x-------x------
G|-----(5)b6r5-(5)b6r5------(5)b6r5-(5)b6r5-|-----(5)b6r5-(5)b6r5-

F--11-11-11-11-11--|
C--x--x--x--x--x---|
G--9--9--9--9--9---|
_______________________________________________________________________________

Guitar 5

F|-----------------------------|------------9-----|---------10--9-|
C|-----7------5-|-----5------7-|-/-10---10-----10-|-----10--------|
G|---5------3---|---3------5---|-/-8--8-----------|---8-----------|
C|-0------2-----|-3------5-----|-/-8--------------|-8-------------|

F|---------10p9------|-9-------------|
C|-----10-------10---|-10------------|
G|---8-------------8-|-8-------------|
C|-8-----------------|-8-------------|

CHORUS with second ending (2 times)

OUTRO

Guitar 5

F|---------------|-------------10-10-9--|
C|---------------|-------------10-10-10-|
G|---------------|-------------8--8--8--|   3 times
C|-0-0----0-0----|-0-0----0-0--8--8--8--|
   **************************

F|---------------|-------10-10-9--|
C|---------------|-------10-10-10-|
G|---------------|-------8--8--8--|
C|-0-0----0-0----|0-0----8--8--8--|
   ******************

Guitar 4 (now with distortion) comes in the third time through the above riff...

F|-----10-9--10-9----10-9--10-9--|-----10-9--10-9----10-10-9--|
C|-----10-10-10-10---10-10-10-10-|-----10-10-10-10---10-10-10-|   2 times


REWIND

I'm going to do the "normal" electric parts first, then the ebow electric part,
and then the 12 string acoustic parts (yes, there's two of them) last. Sorry, 
but if I didn't do it this way it would be very complicated.

* = palm mute
x = mute string
-/- = shift slide
~/~ = legato slide
h = hammer on
() = grace note

NORMAL ELECTRIC PARTS

INTRO

Guitar 2 (clean)

F|------0------0-|-------0--------0-|-----0------0-|-----0--------------|
C|-10-9------9---|----12-------12---|---4------4---|---7------4-(4)~\~2-|
G|---------0-----|------------------|-7------7-----|--------------------|
C|---------------|-10-------10------|--------------|-5------0-----------|

F|------0------0-|-------0--------0-|-----0------0-|-----0------0-|
C|-10-9------9---|----12-------12---|---4------4---|---5------5---|
G|---------0-----|------------------|-7------7-----|--------------|
C|---------------|-10-------10------|--------------|-3------3-----|

VERSE 1

-------------------------------------------------------------------------------
Guitar 2

F|------0------0-|-------0--------0-|-----0------0-|-----0--------------|
C|-10-9------9---|----12-------12---|---4------4---|---7------4-(4)~\~2-|
G|---------0-----|------------------|-7------7-----|--------------------|
C|---------------|-10-------10------|--------------|-5------0-----------|

F|------0------0-|-------0--------0-|-----0------0-|-----0------0-|
C|-10-9------9---|----12-------12---|---4------4---|---5------5---|   play all
G|---------0-----|------------------|-7------7-----|--------------|   that two
C|---------------|-10-------10------|--------------|-3------3-----|   times
-------------------------------------------------------------------------------

F|-----0------0-|-----0------0-|-----0------0-|-----0------|
C|---4------4---|---5------5---|---4------4---|---5--------|
G|-7------7-----|--------------|-7------7-----|------------|
C|--------------|-3------3-----|--------------|-3----------|

CHORUS

Guitar 5 (distortion)

A|--------------------|-----------------------|-----0---0------0---0-|
F|--------------------|-----------------------|-----0---0------0---0-|
C|-9--9-9-9---9-9-9-9-|-12--12-12-12---12-----|-0h2-2-2-2--0h2-2-2-2-|
G|-7--7-7-7---7-7-7-7-|-10--10-10-10---10-----|-0h2---2----0h2---2---|
C|-7--7-7-7---7-7-7-7-|-10--10-10-10---10-----|-0h2---2----0h2---2---|
        ***                    *****                  *          *

C|-7--7-7-7---4--4--2---|-9--9-9-9---9-9-9-9-|-12--12-12-12---12-----|
G|-5--5-5-5---0-------0-|-7--7-7-7---7-7-7-7-|-10--10-10-10---10-----|
C|-5--5-5-5---0-------0-|-7--7-7-7---7-7-7-7-|-10--10-10-10---10-----|
        ***                    ***                    *****

A|-----0---0------0---0-|-----------------|
F|-----0---0------0---0-|-----------------|
C|-0h2-2-2-2--0h2-2-2-2-|-5--5-5-5---5--5-|
G|-0h2---2----0h2---2---|-3--3-3-3---3--3-|
C|-0h2---2----0h2---2---|-3--3-3-3---3--3-|
         *          *          ***

INTERLUDE

Guitar 5

C|-9----------|-12----------|
G|-7----------|-10----------|
C|-7----------|-10----------|

Guitar 2

F|------0------0-|-------0--------0-|-----0------0-|-----0----------------|
C|-10-9------9---|----12-------12---|---4------4---|---7---7----4-(4)~\~2-|
G|---------0-----|------------------|-7------7-----|----------------------|
C|---------------|-10-------10------|--------------|-5--------0-----------|

VERSE 2

Guitar 2

F|------0------0-|-------0--------0-|-----0------0-|-----0--------------|
C|-10-9------9---|----12-------12---|---4------4---|---7------4-(4)~\~2-|
G|---------0-----|------------------|-7------7-----|--------------------|
C|---------------|-10-------10------|--------------|-5------0-----------|

F|------0------0-|-------0--------0-|-----0------0-|-----0------0-|
C|-10-9------9---|----12-------12---|---4------4---|---5------5---|
G|---------0-----|------------------|-7------7-----|--------------|
C|---------------|-10-------10------|--------------|-3------3-----|

F|-----0------0-|-----0------0-|-----0------0-|-----0------|
C|---4------4---|---5------5---|---4------4---|---5--------|
G|-7------7-----|--------------|-7------7-----|------------|
C|--------------|-3------3-----|--------------|-3----------|

Guitar 5 comes in in the last measure with this...

C|------x-x-x-x-x-x-|
G|------x-x-x-x-x-x-|
C|------x-x-x-x-x-x-|

CHORUS is the same except for the last measure...

Guitar 5

C|-5-5-5-5-5-5--5-5-5-5-5-5-|
G|-3-3-3-3-3-3--3-3-3-3-3-3-|
C|-3-3-3-3-3-3--3-3-3-3-3-3-|
   ***********

BRIDGE

Guitar 5

F|-0-0-0-0-0-0--0-0-0-0-0-0-|--------------------------|-0-0-0-0-0-0-
C|-4-4-4-4-4-4--4-4-4-4-4-4-|-5-5-5-5-5-5--5-5-5-5-5-5-|-4-4-4-4-4-4-
G|-2-2-2-2-2-2--2-2-2-2-2-2-|-3-3-3-3-3-3--3-3-3-3-3-3-|-2-2-2-2-2-2-
C|-2-2-2-2-2-2--2-2-2-2-2-2-|-3-3-3-3-3-3--3-3-3-3-3-3-|-2-2-2-2-2-2-

F--0-0-0-0-0-0-|-0-0-0-0-0-0--0-0-0-0-0-0-|-0-0-0-0-0-0--0-0-0-0-0-0-|
C--4-4-4-4-4-4-|-1-1-1-1-1-1--1-1-1-1-1-1-|-4-4-4-4-4-4--4-4-4-4-4-4-|
G--2-2-2-2-2-2-|-1-1-1-1-1-1--1-1-1-1-1-1-|-2-2-2-2-2-2--2-2-2-2-2-2-|
C--2-2-2-2-2-2-|-1-1-1-1-1-1--1-1-1-1-1-1-|-2-2-2-2-2-2--2-2-2-2-2-2-|

C|-5-5-5-5-5-5--5-5-5-5-5-5-|-7-7-7-7-7-7--7-7-7-7--7-|-7----------|
G|-3-3-3-3-3-3--3-3-3-3-3-3-|-5-5-5-5-5-5--5-5-5-5--5-|-5----------|
C|-3-3-3-3-3-3--3-3-3-3-3-3-|-5-5-5-5-5-5--5-5-5-5--5-|-5----------|
                                                    *

CHORUS, and again the last measure is different...

F|-0-0-0-0-0-----------------|
C|-1-1-1-1-1-1~/~3-5-5-5-5-5-|
G|-1-1-1-1-1-1~/~3-3-3-3-3-3-|
C|-1-1-1-1-1-1~/~3-3-3-3-3-3-|

CHORUS again, and AGAIN the last measure is different (this time because it
finishes the song)...

A|-0----------|
F|-0----------|
C|-5----------|
G|-3----------|
C|-3----------|

EBOW PARTS (this stuff is kind of confusing to write out, so if I made any
mistakes, I apologise.)

INTRO (first two measures of VERSE 1 included)

Guitar 1 (distortion, with ebow)

A|-17------~\~|~15------~\~|~12------~\~|~10---~\~7-----~/~|~17------~/~|

A|~19------~\~|~12------|------|------|
                ^ hold

VERSE 1

Guitar 1

A|------------|------------|------------|------------|------------|------------|

A|------------|--15--------|------------|-----~\~13~\~|~12~\~10-----|

A|---~/~12~/~13~/~|~15---- 


/
How To Set Up Higher Praise As Your Home Page
Copyright 1999, Higher Praise HigherPraise,Inc. All rights reserved. Terms of Use

Enjoy A Life Changing Experience

 
 
 
HigherPraise, Higher Praise, HigherPraise, Higher Praise, HigherPraise

Members..Sign Up. LogIn

 
 

Higher Praise Other Sites
 
 

HigherPraise.org/
Praise And Worship
www.higherpraise.org

HigherPraise.net
Christian Resources
www.higherpraise.net

HigherPraiseTube.com
Videos And Audios
www.higherpraisetube.com.


ChristianLyrics.org

Lyrics And Chrords
www.christianlyrics.org

ChristianChordsLyrics

Lyrics And Chrords
www.christianchordslyrics.com

ChristianChordLyrics

Lyrics And Chrords
www.christianchordlyrics.com

WorshipLyrics.org
10.000 Illustrations
www.worshiplyrics.org

WorshipLyrics.net
10.000 Illustrations
www.worshiplyrics.net

PraiseLyrics.com
PowerPoint Lyrics

www.praiselyrics.com

PraiseLyrics.org
PowerPoint Lyrics

www.praiselyrics.org

1GodTube.com
Chistian Videos

www1godtube..com

OneGodTube.com
Chistian Videos

www.onegodtube..com

 

/
Copyright 1999 - 2019, Higher Praise™ HigherPraise™,Inc. All rights reserved. Terms of Use