Higher Praise - Guitar Chords, Lyrics  GuitarTabs -  Praise nad Worship Music And Christian Songs

Higher Praise - Guitar Tabs, Guitar Chords, Lyrics
   Lyrics, Chords And Tabs
   Popular Lyrics Chords Tab
   Power Point Lyrics
   Praise & Worship Music
   Christian Music Videos
   15900 Videos & Audios
   Midi Files
   Worship Questions
   Christmas Chords, Lyrics
   Lyrics, Chords Tabs Rated

Sermon Outlines And Audio Sermons
   9344 Sermon Outlines
   N.T. Sermon Outlines
   O.T. Sermon Outlines
   Special Guest Outlines
   10.000 Illustrations
   Sunday School Studies
   Bible College Studies
   Greatest Preachers
   Bible Research Tools
Audio Sermons
   2895 Audio Sermons
   85 Sermon Videos
   291 Special Guests Serm

   Complete Audio Bible
Higher Praise Sunday School Teaching
   Children's NT Studies
   Children's OT Studies

   98 Children's Midis
   Gospel For Kids Movie
   Children's JESUS Film
Higher Praise Christian Video Library ,Videos
   Christian Television
   TBN TV Live
   15,000 Videos - HP Tube
   712 Youth Music Vids
  Christian Video Library
   Praise Videos #1 & #2
   85 Sermon Videos
   Prophecy Film -Videos
   JESUS Film -Video
   Childrens JESUS Film
   Gospel For Kids Movie
   Passion Of The Christ
   Noah, Sodom, Sinai, Ark
   Tsunami Videos Photos
News And Information
   Testimonies
   Submit Lyrics, Tabs, Serm
   10.000 Illustrations
   Bible College Course
   Clipart & Web Graphics
   Greatest Preachers
   Complete Talking Bible
   Christian Chat Rooms
   Links Church Resource
   HP Statement Of Faith
Download Clipart
   Audio Sermons
   Clipart & Web Graphics
   Church Administration
   Bible Study Software
   Screen Savers Software
   Verse A Day Software
   Educational Games
   Trade Center Photos

   Soft. Search Engine
Higher Praise News
   Current News
    Archived News
   Submit News
   Newsletter   Higher Praise Interact Prayer
   Prayer For All Needs
   
Submit Lyrics, Sermons
   
Contact Higher Praise
   
Advertising 
   Privacy Policy
//
He Died For You,  Click For Answer! This Is Who Jesus Is Video

'
 
0-9 A B C D E F G H I J K L M N O P Q R S T U V W X Y Z
.

//
Click For Printable...Version Of This File
 

Faith, Love, And Happiness


by Thousand Foot Krutch




Artist: Thousand Foot Krutch
Song: Faith, Love, And Happiness
Album: Phenomenon
Tuning: Drop D


First off, huge thanks to the admin for TFK guitar tabs! I've submitted a
lot of tabs lately and I've never had to wait for them to appear on the site.
Big Thanks!

The main riff in this song has a pretty fast pace and you need a bit of
experience to be able to nail it perfect. The trickiest part is in the end of
the main riff where you have to switch fast between a palm muted D#5 chord and
a D# octave an octave higher. It's hard, but you can do it if you're fast. You
can replace those palm mutings with scratchings if you want to make it easier.

The song uses two guitars. One is the Rhythm Guitar that plays with distortion
through the whole song. The second is the Lead Guitar that only appears in the
choruses and in the bridge. 

x = Scratching (Heavy muting to get a cool "dead" sound)
x in octaves = Mute string completely so you can't hear it at all
P.M. or ... = Palm Muting


  Intro: Rhythm Guitar (Distortion through entire song)
G|------------87-3--------8-8----8-8--------------87-3-----------8-----8--|
D|--5-87-3-1--xx-x-5587-3xx-x---xx-x---x5-87-3-1--xx-x-5587-3-1-1x---11x--|
A|--5-87-3-1--65-1-5587-3x6-6---x6-6---x5-87-3-1--65-1-5587-3-1-16---116--|
D|--5-87-3-1-------5587-3x------x------x5-87-3-1-------5587-3-1-1----11---|
P.M.                                                          . .    ..


  Verse 1: Rhythm Guitar
G|---------------------------------------------------------------7-8-5--|
D|--5---------------8-------10-------5---------------8-------1---x-x-x--|
A|--5---------------8-------10-------5---------------8-------1---5-6-3--|
D|--5---------------8-------10-------5---------------8-------1----------|


  Chorus: Rhythm Guitar
G|--------------------8--8------------------------------------|
D|--5--8--5-------1---8--83-3-3---5--8--5-------8-8-8--3-3-3--|
A|--5--8--5-------1---6--63-3-3---5--8--5-------8-8-8--3-3-3--|x2
D|--5--8--5-------1-------3-3-3---5--8--5-------8-8-8--3-3-3--|

  Chorus: Lead Guitar (Does these things in the "pauses", low volume)
G|---------------------|--------------------|
D|---------------------|--5---5---5---5-----|
A|---5---5---5---5-----|---555-555-555-555--|x2
D|----555-555-555-555--|--------------------|


  Post-Chorus: Rhythm Guitar (Same as second part of intro)
G|------------87-3-----------8-----8--|
D|--5-87-3-1--xx-x-5587-3-1-1x---11x--|
A|--5-87-3-1--65-1-5587-3-1-16---116--|
D|--5-87-3-1-------5587-3-1-1----11---|
P.M.                      . .    ..


  Verse 2: Rhythm Guitar
G|---------------------------------------------------------------7-8-5--|
D|--5-------8-------8-------10-------5-------8-------8-------1---x-x-x--|
A|--5-----------5-5-8-------10-------5-----------5-5-8-------1---5-6-3--|
D|--5---------------8-------10-------5---------------8-------1----------|


Chorus


  Bridge: Rhythm Guitar (Part 1)
G|---------------------------------------------------------------------------|
D|-10-10------10-10------8-8------8-8------8-8------8-8------3-3------3-3----|
A|-10-10------10-10------5-5------5-5------6-6------6-6------3-3------3-3----|
D|-10-10------10-10------5-5------5-5------6-6------6-6------3-3------3-3----|

  Bridge: Lead Guitar (Part 1, Hollow sound, low presence)
G|-------7777-------7777-----7777-----7777-----8888-----8888-----5555---5-7-5|
D|-------xxxx-------xxxx-----xxxx-----xxxx-----xxxx-----xxxx-----xxxx---x-x-x|
A|-------5555-------5555-----5555-----5555-----6666-----6666-----3333---3-5-3|
D|---------------------------------------------------------------------------|


  Bridge: Rhythm Guitar (Part 2, same as part 1)
G|---------------------------------------------------------------------------|
D|-10-10------10-10------8-8------8-8------8-8------8-8------3-3------3-3----|
A|-10-10------10-10------5-5------5-5------6-6------6-6------3-3------3-3----|
D|-10-10------10-10------5-5------5-5------6-6------6-6------3-3------3-3----|

  Bridge: Lead Guitar (Part 2, slightly different)
G|-------7777-------7777-----7777-----778------8888-----8888-----5555---5-7-5|
D|-------xxxx-------xxxx-----xxxx-----xxx------xxxx-----xxxx-----xxxx---x-x-x|
A|-------5555-------5555-----5555-----556------6666-----6666-----3333---3-5-3|
D|---------------------------------------------------------------------------|


  Bridge: Rhythm Guitar (Part 3)
G|---------------------------------------------------------------------|
D|--10-10-10-10-10-10-10-10-8-8-8-8-8-8-8-8-8-8-8-8-8-8-8-8-3-3-3-3----|
A|--10-10-10-10-10-10-10-10-5-5-5-5-5-5-5-5-6-6-6-6-6-6-6-6-3-3-3-3----|
D|--10-10-10-10-10-10-10-10-5-5-5-5-5-5-5-5-6-6-6-6-6-6-6-6-3-3-3-3----|

  Bridge: Lead Guitar (Part 3)
G|--------7777-----7778---------7777--7778--8-8-8-8-8-8-8-8-10101010---|
D|--------xxxx-----xxxx---------xxxx--xxxx--x-x-x-x-x-x-x-x-x-x-x-x----|
A|--------5555-----5556---------5555--5556--6-6-6-6-6-6-6-6-8-8-8-8----|
D|---------------------------------------------------------------------|
(The Lead Guitar's rhythm might look a little strange here, because there's a
 lot of 10 notes which messes up the tabbing. I've tabbed the Lead Guitar to
 be synchronized with the Rhythm Guitar, so the Lead Guitar starts playing at
 the third and sixth chord strike of the Rhythm Guitar for the first two
 chords, then the Lead Guitar follows the same rhythm as the Rhythm Guitar.)


Chorus


Main Riff x2 (Same as intro)


That's all! I love this song, just like I love all the other TFK songs. I love
TFK. There is nothing more to say really. TFK ROCKS!!!
God Bless,
Daniel 


/
How To Set Up Higher Praise As Your Home Page
Copyright 1999, Higher Praise HigherPraise,Inc. All rights reserved. Terms of Use

Enjoy A Life Changing Experience

 
 
 
HigherPraise, Higher Praise, HigherPraise, Higher Praise, HigherPraise

Members..Sign Up. LogIn

 
 

Higher Praise Other Sites
 
 

HigherPraise.org/
Praise And Worship
www.higherpraise.org

HigherPraise.net
Christian Resources
www.higherpraise.net

HigherPraiseTube.com
Videos And Audios
www.higherpraisetube.com.


ChristianLyrics.org

Lyrics And Chrords
www.christianlyrics.org

ChristianChordsLyrics

Lyrics And Chrords
www.christianchordslyrics.com

ChristianChordLyrics

Lyrics And Chrords
www.christianchordlyrics.com

WorshipLyrics.org
10.000 Illustrations
www.worshiplyrics.org

WorshipLyrics.net
10.000 Illustrations
www.worshiplyrics.net

PraiseLyrics.com
PowerPoint Lyrics

www.praiselyrics.com

PraiseLyrics.org
PowerPoint Lyrics

www.praiselyrics.org

1GodTube.com
Chistian Videos

www1godtube..com

OneGodTube.com
Chistian Videos

www.onegodtube..com

 

/
Copyright 1999 - 2019, Higher Praise™ HigherPraise™,Inc. All rights reserved. Terms of Use