Higher Praise - Guitar Chords, Lyrics  GuitarTabs -  Praise nad Worship Music And Christian Songs

Higher Praise - Guitar Tabs, Guitar Chords, Lyrics
   Lyrics, Chords And Tabs
   Popular Lyrics Chords Tab
   Power Point Lyrics
   Praise & Worship Music
   Christian Music Videos
   15900 Videos & Audios
   Midi Files
   Worship Questions
   Christmas Chords, Lyrics
   Lyrics, Chords Tabs Rated

Sermon Outlines And Audio Sermons
   9344 Sermon Outlines
   N.T. Sermon Outlines
   O.T. Sermon Outlines
   Special Guest Outlines
   10.000 Illustrations
   Sunday School Studies
   Bible College Studies
   Greatest Preachers
   Bible Research Tools
Audio Sermons
   2895 Audio Sermons
   85 Sermon Videos
   291 Special Guests Serm

   Complete Audio Bible
Higher Praise Sunday School Teaching
   Children's NT Studies
   Children's OT Studies

   98 Children's Midis
   Gospel For Kids Movie
   Children's JESUS Film
Higher Praise Christian Video Library ,Videos
   Christian Television
   TBN TV Live
   15,000 Videos - HP Tube
   712 Youth Music Vids
  Christian Video Library
   Praise Videos #1 & #2
   85 Sermon Videos
   Prophecy Film -Videos
   JESUS Film -Video
   Childrens JESUS Film
   Gospel For Kids Movie
   Passion Of The Christ
   Noah, Sodom, Sinai, Ark
   Tsunami Videos Photos
News And Information
   Testimonies
   Submit Lyrics, Tabs, Serm
   10.000 Illustrations
   Bible College Course
   Clipart & Web Graphics
   Greatest Preachers
   Complete Talking Bible
   Christian Chat Rooms
   Links Church Resource
   HP Statement Of Faith
Download Clipart
   Audio Sermons
   Clipart & Web Graphics
   Church Administration
   Bible Study Software
   Screen Savers Software
   Verse A Day Software
   Educational Games
   Trade Center Photos

   Soft. Search Engine
Higher Praise News
   Current News
    Archived News
   Submit News
   Newsletter   Higher Praise Interact Prayer
   Prayer For All Needs
   
Submit Lyrics, Sermons
   
Contact Higher Praise
   
Advertising 
   Privacy Policy
//
He Died For You,  Click For Answer! This Is Who Jesus Is Video

'
 
0-9 A B C D E F G H I J K L M N O P Q R S T U V W X Y Z
.

//
Click For Printable...Version Of This File
 

Facedown


by Matt Redman




i am not sure where to state my motivation for an already listed song, so here
it is: This is the tabs throughout the song
(so far only chords has been submitted)

Song: Facedown
Album: Facedown
Artist: Matt Redman
(C)2003 Thankyou Music

chords by mn3268
tabs by wRatte

Capo on 6

Chords(with capo in position):
F2     1x3010
C/G    332010
C?     332000 (i dont know the real name)
Am7    x02010
Am     x02210
E      022100
Em     022000
Gsus   320013
D2/F#  200230

summary of chords (tnx to mn3268 & those who commented his on his chords):
==========================================================================

	Verse 1:Am   -  E
		Cmaj -  D2/F#
		Am   -  E
		Cmaj -  F2
	
	Verse 2:Am   -  E
		Cmaj -  D2/F#
		Am   -  E
		Cmaj -  F2
	
	Chorus:C/G   -  F2
	Am7   -  Gsus - F2
	C/G   -  F2
	Am7   -  Gsus - F2
	
	
	Bridge section(this section just keep bouncing back and forth 
        Gsus-F2-Gsus-F2
	until ready to come out to the chorus, 
        before the chorus be on the Gsus)
	
	Gsus  -	  F2

tabs:
==========================================================================
GUITAR 1 = lead guitar
GUITAR 2 = acoustic guitar

		GUITAR 1:				GUITAR 2:
intro:
   Am              E               Em                  Am    E     Em
e|-0---0---0---0---0---0---0---0---0---0---0---0---| |-------0-----0-----|
B|---1---1---1---1---0---0---0---0---0---0---0---0-| |-------0-----0-----|
G|-------------------------------------------------| |-------1-----0-----|
D|-------------------------------------------------| |-------2-----2-----|
A|-------------------------------------------------| |-------2-----3-----|
E|-------------------------------------------------| |-------0-----3-----|
   D2/F#                                               D2/F#
e|-------------------|                               |-0-----------------|
B|-3---3---3-------3-|                               |-3-----------------|
G|---2---2---2-0-2---|                               |-2-----------------|
D|-------------------|                               |-0-----------------|
A|-------------------|                               |-0-----------------|
E|-------------------|                               |-2-----------------|

verse 1:
   Am              E               Em                  Am    E     Em
e|-0---0---0---0---0---0---0---0---0---0---0---0---| |-0-----0-----0-----|
B|---1---1---1---1---0---0---0---0---0---0---0---0-| |-1-----0-----0-----|
G|-------------------------------------------------| |-2-----1-----0-----|
D|-------------------------------------------------| |-3-----2-----2-----|
A|-------------------------------------------------| |-0-----2-----3-----|
E|-------------------------------------------------| |-------0-----3-----|
   D2/F#                                               D2/F#
e|---------0-------|                                 |-0---------------|
B|-3---3-------3---|                                 |-3---------------|
G|---2---2---2---2-|                                 |-2---------------|
D|-----------------|                                 |-0---------------|
A|-----------------|                                 |-0---------------|
E|-----------------|                                 |-2---------------|
   Am              E               Em                  Am    E     Em
e|-0---0---0---0---0---0---0---0---0---0---0---0---| |-0-----0-----0-----|
B|---1---1---1---1---0---0---0---0---0---0---0---0-| |-1-----0-----0-----|
G|-------------------------------------------------| |-2-----1-----0-----|
D|-------------------------------------------------| |-3-----2-----2-----|
A|-------------------------------------------------| |-0-----2-----3-----|
E|-------------------------------------------------| |-------0-----3-----|
   D2/F#                                               D2/F#
e|-------0---------|                                 |-0---------------|
B|-3---3---3-------|                                 |-3---------------|
G|---2-------2-0-2-|                                 |-2---------------|
D|-----------------|                                 |-0---------------|
A|-----------------|                                 |-0---------------|
E|-----------------|                                 |-2---------------|

verse 1: (2nd time)
   Am              E               Cmaj                Am             E   Cmaj
e|-0---0---0---0---0---0---0---0---0---0---0---0---| |----------------0---0--|
B|---1---1---1---1---0---0---0---0---0---0---0---0-| |-1----0-1-------0---0--|
G|-------------------------------------------------| |-2--------------1---0--|
D|-------------------------------------------------| |-3--------------2---2--|
A|-------------------------------------------------| |-0--------------2---3--|
E|-------------------------------------------------| |----------------0---3--|
   D2/F#                                               D2/F#
e|-------0---------|                                 |-0---------------|
B|-3---3---3-------|                                 |-3---------------|
G|---2-------2-0-2-|                                 |-2---------------|
D|-----------------|                                 |-0---------------|
A|-----------------|                                 |-0---------------|
E|-----------------|                                 |-2---------------|
   Am              E               Cmaj                Am             E   Cmaj
e|-0---0---0---0---0---0---0---0---0---0---0---0---| |----------------0---0--|
B|---1---1---1---1---0---0---0---0---0---0---0---0-| |-1----0-1-------0---0--|
G|-------------------------------------------------| |-2--------------1---0--|
D|-------------------------------------------------| |-3--------------2---2--|
A|-------------------------------------------------| |-0--------------2---3--|
E|-------------------------------------------------| |----------------0---3--|
   F2                                                  F2
e|-0---0---0-------------|                           |-----------------------|
B|---1---1---1-1-3-1-3-1-|                           |-------1---------------|
G|-----------------------|                           |-----2-----------------|
D|-----------------------|                           |---2-------------------|
A|-----------------------|                           |-0---------------------|
E|-----------------------|                           |-----------------------|

chorus:
   C/G           F2            Am7     Gsus            C/G  F2  Am7   Gsus
e|-------------------------------------------------| |---------------------|
B|---1-3-1-3-1-----1-3-1-3-1-----1-3-1---1-3-1-----| |---------------------|
G|-0-----------0-0-----------0-0-------0-----------| |--GUITAR 2 just------|
D|-------------------------------------------------| |---strums the--------|
A|-------------------------------------------------| |-----chords----------|
E|-------------------------------------------------| |---------------------|
   F2                                                  F2
e|-----------------------|                           |----------------------|
B|---1-3-1-3-1-3-1-------|                           |----------------------|
G|-0---------------------|                           |----------------------|
D|-----------------------|                           |----------------------|
A|-----------------------|                           |----------------------|
E|-----------------------|                           |----------------------|
   C/G           F2            Am7     Gsus            C/G   F2  Am7  Gsus
e|-------------------------------------------------| |---------------------|
B|---1-3-1-3-1-----1-3-1-3-1-----1-3-1---1-3-1-----| |---------------------|
G|-0-----------0-0-----------0-0-------0-----------| |-GUITAR 2 just-------|
D|-------------------------------------------------| |--strums the---------|
A|-------------------------------------------------| |----chords-----------|
E|-------------------------------------------------| |---------------------|
   F2                                                  F2
e|-------3---3-----------|                           |----------------------|
B|---1-3---3-------------|                           |----------------------|
G|-0---------------------|                           |----------------------|
D|-----------------------|                           |----------------------|
A|-----------------------|                           |----------------------|
E|-----------------------|                           |----------------------|

at the bridge i just repeat:
                                                       F2        Gsus
e|------------------|                                |----------------|
B|---1-3---1-3-1----|                                |----------------|
G|-0-----0-------0--|                                |-GUITAR 2 just--|
D|------------------|                                |--strums the----|
A|------------------|                                |----chords------|
E|------------------|                                |----------------|

after the bridge all guitars must play strumming.

i know this isnt exactly as they play it through every chorus, verse and
bridge, since they play around with the chords & picking here & there... 


/
How To Set Up Higher Praise As Your Home Page
Copyright 1999, Higher Praise HigherPraise,Inc. All rights reserved. Terms of Use

Enjoy A Life Changing Experience

 
 
 
HigherPraise, Higher Praise, HigherPraise, Higher Praise, HigherPraise

Members..Sign Up. LogIn

 
 

Higher Praise Other Sites
 
 

HigherPraise.org/
Praise And Worship
www.higherpraise.org

HigherPraise.net
Christian Resources
www.higherpraise.net

HigherPraiseTube.com
Videos And Audios
www.higherpraisetube.com.


ChristianLyrics.org

Lyrics And Chrords
www.christianlyrics.org

ChristianChordsLyrics

Lyrics And Chrords
www.christianchordslyrics.com

ChristianChordLyrics

Lyrics And Chrords
www.christianchordlyrics.com

WorshipLyrics.org
10.000 Illustrations
www.worshiplyrics.org

WorshipLyrics.net
10.000 Illustrations
www.worshiplyrics.net

PraiseLyrics.com
PowerPoint Lyrics

www.praiselyrics.com

PraiseLyrics.org
PowerPoint Lyrics

www.praiselyrics.org

1GodTube.com
Chistian Videos

www1godtube..com

OneGodTube.com
Chistian Videos

www.onegodtube..com

 

/
Copyright 1999 - 2019, Higher Praise™ HigherPraise™,Inc. All rights reserved. Terms of Use