Higher Praise - Guitar Chords, Lyrics  GuitarTabs -  Praise nad Worship Music And Christian Songs

Higher Praise - Guitar Tabs, Guitar Chords, Lyrics
   Lyrics, Chords And Tabs
   Popular Lyrics Chords Tab
   Power Point Lyrics
   Praise & Worship Music
   Christian Music Videos
   15900 Videos & Audios
   Midi Files
   Worship Questions
   Christmas Chords, Lyrics
   Lyrics, Chords Tabs Rated

Sermon Outlines And Audio Sermons
   9344 Sermon Outlines
   N.T. Sermon Outlines
   O.T. Sermon Outlines
   Special Guest Outlines
   10.000 Illustrations
   Sunday School Studies
   Bible College Studies
   Greatest Preachers
   Bible Research Tools
Audio Sermons
   2895 Audio Sermons
   85 Sermon Videos
   291 Special Guests Serm

   Complete Audio Bible
Higher Praise Sunday School Teaching
   Children's NT Studies
   Children's OT Studies

   98 Children's Midis
   Gospel For Kids Movie
   Children's JESUS Film
Higher Praise Christian Video Library ,Videos
   Christian Television
   TBN TV Live
   15,000 Videos - HP Tube
   712 Youth Music Vids
  Christian Video Library
   Praise Videos #1 & #2
   85 Sermon Videos
   Prophecy Film -Videos
   JESUS Film -Video
   Childrens JESUS Film
   Gospel For Kids Movie
   Passion Of The Christ
   Noah, Sodom, Sinai, Ark
   Tsunami Videos Photos
News And Information
   Testimonies
   Submit Lyrics, Tabs, Serm
   10.000 Illustrations
   Bible College Course
   Clipart & Web Graphics
   Greatest Preachers
   Complete Talking Bible
   Christian Chat Rooms
   Links Church Resource
   HP Statement Of Faith
Download Clipart
   Audio Sermons
   Clipart & Web Graphics
   Church Administration
   Bible Study Software
   Screen Savers Software
   Verse A Day Software
   Educational Games
   Trade Center Photos

   Soft. Search Engine
Higher Praise News
   Current News
    Archived News
   Submit News
   Newsletter   Higher Praise Interact Prayer
   Prayer For All Needs
   
Submit Lyrics, Sermons
   
Contact Higher Praise
   
Advertising 
   Privacy Policy
//
He Died For You,  Click For Answer! This Is Who Jesus Is Video

'
 
0-9 A B C D E F G H I J K L M N O P Q R S T U V W X Y Z
.

//
Click For Printable...Version Of This File
 

Black Mass


by Warlord




BLACK MASS (Warlord)



If you have anything that has to do with warlord please email me


  B5   F#5         B5  F#5         B5  F#5         B5  F#5
  Intro .............................................................. 


----------------
---------------
---------------
-----14-10-12-14-15-

----------------
---------------
-----7-5-7-8-7-
--------------------

-4--------------
-4-------------
-4-------------
-4------------------

-4----4-2-4-5-4-
-4---4-0-2-4-5-
-4-------------
-4------------------

-2--------------
-2-------------
-2-------------
-2------------------

----------------
---------------
---------------
--------------------



  Riff1...............................  Fill1.......................
                                     3x

-----------------
------------------
-------------
-------------


*----------------
-----------------*
-------------
-------3-5-7-


-----------------
------------------
-------------
-2-4-5-------


-----------------
------------------
-------2-4-5-
-------------


*-2-2-2-2-0-2--3-
-2-2-2-2-0---0---*
-2-3-5-------
-------------


-----------------
-----------3------
-------------
-------------

							       The

   w/Riff1                            Fill2.........................
                                    3x

----------------
-----------------
---------------
--------------


*---------------
----------------*
---------------
--------------


----------------
-----------------
---------------
--------------


----------------
-----------------
---------------
-------2-4-5--


*-2-2-2-2-0-2-3-
-2-2-2--2-0---0-*
-2-2-2-2-0-2-3-
-2-3-5--------


----------------
------------3----
---------------
--------------

   moon     it was  full     and the
   time     has     come      for us   all

 Riff2............  Fill3.........  
                  7x

----------------
-------------


*--------------*
-------------


----------------
-4-2---------


----4----2-4-5--
-----5-4-2---


*-2---5--------*
-----------5-


----------------
-------------

   sun     it was             The 
   gone   and the
   people     a-
   waited     the
   call.       

Chorus.................................................................
 B5                       C5        D5              B5              


---------
-------------
---------
---------------
---------
---------

---------
-------------
---------
---------------
---------
---------

-4-------
-4-----------
-5-------
-7-------------
-4-------
-4-------

-4-------
-4-----------
-5-------
-7-------------
-4-------
-4-------

-2---2-2-
-2---2-2-----
-3---3-3-
-5-------5-3-0-
-2---2-2-
-2---2-2-

---------
-------------
---------
---------------
---------
---------


 Devil was there with the fire      burning in the air
 Demons they danced and drunk from the chalice they share

..................................................        
C5     D5        B5                C5      D5


------
---------
-------
-------
-------
--------

------
---------
-------
-------
-------
--------

------
---------
-4-----
-4-----
-5---7-
-9--11--

-5----
-4-0-2-4-
-4-----
-4-----
-------
--------

------
---------
-2-2-2-
-2-2-2-
-------
--------

------
---------
-------
-------
-------
--------

                              (Second time) Nobody


  Riff1............(2nd time w/Fill3)   
                                   4x

----------------
----------------


*---------------
---------------*


----------------
----------------


----------------
----------------


*-2-2-2-2-0-2-3-
-2-2-2-2-0---0-*


----------------
-----------3----

   cared

                 
Fill3....................................................


-------0-2-0---
-7--
-(7)--
-------------
-------------

-0h1-3-------3-
----
------
-------------
-------3-5-7-

---------------
----
------
-------------
-2-4-5-------

---------------
----
------
-------2-4-5-
-------------

---------------
----
------
-2-3-5-------
-------------

---------------
----
------
-------------
-------------

                                                Now the

 Riff1..............................  Fill2...........................
                                   2x

----------------
----------------
-------------------
-------------


*---------------
---------------*
-------------------
-------------


----------------
----------------
-------------------
-------------


----------------
----------------
-------------------
-------2-4-5-


*-2-2-2-2-0-2-3-
-2-2-2-2-0---0-*
-2-2--2-2-0-2-3----
-2-3-5-------


----------------
-----------3----
-------------------
-------------

   evil         of  man       was
   passed   by the act of Lucifer's  kiss                    And the 


Riff2............  Fill3.........  
                  7x

----------------
-------------


*--------------*
-------------


----------------
-4-2---------


----4----2-4-5--
-----5-4-2---


*-2---5--------*
-----------5-


----------------
-------------

   evil       broke           The 
   loose  from the
   tombs        of
   Hells  fiery a-      
   Byss.       


Chorus.................................................................
 B5                       C5        D5              B5              

---------
-------------
---------
---------------
---------
---------

---------
-------------
---------
---------------
---------
---------

-4-------
-4-----------
-5-------
-7-------------
-4-------
-4-------

-4-------
-4-----------
-5-------
-7-------------
-4-------
-4-------

-2---2-2-
-2---2-2-----
-3---3-3-
-5-------5-3-0-
-2---2-2-
-2---2-2-

---------
-------------
---------
---------------
---------
---------


 Devil was there with the fire      burning in the air
 Demons they danced and drunk from the chalice they share

..................................................        
C5     D5        B5                C5      D5


------
---------
-------
-------
-------
--------

------
---------
-------
-------
-------
--------

------
---------
-4-----
-4-----
-5---7-
-9--11--

-5----
-4-0-2-4-
-4-----
-4-----
-------
--------

------
---------
-2-2-2-
-2-2-2-
-------
--------

------
---------
-------
-------
-------
--------

                              (Second time) Nobody


 Bridge............................................
                                           A.H.

-------------
-------------
-------------
-------

-------------
-------------
-------------
-------

-------------
-------------
-------------
-4-----

---4---2-4-5-
---4---2-4-5-
---4---2-4-5-
-------

-2---5-------
-2---5-------
-2---5-------
-------

-------------
-------------
-------------
-------


 ......................................................
                 4x                 4x                 4x

---------------

---------------

---------------


*-------------*

*-------------*

*-------------*


---------------

---------------

---------------


----4---2-4-5--

---------------

----4---2-4-5--


*-2---5-------*

*---4---2-4-5-*

*-2---5-------*


---------------

--2---5--------

---------------



  ......................................................
                                 4x

-------------------------------
------------
--------------


*-----------------------------*
---------\--
---/7---------


-------------------------------
----------\-
--/-----------


-------------------------------
--4--------\
/-------------


*-----------------------------*
--4---------
--------------


--2-2-2-2-3-2-0--2-2-2-2-5-3-0-
--2---------
--------------




Solo(Chorus2x) Fill4....................................................


------------
----------------
-------------
--------------
----------


------------
*---------------
-------------
--------------
---------*


------------
----------------
-------------
--------------
----------


------------
--9-10--9-7-9-7-
-5-7-5-4-5-4-
-9-10-9-7-9-7-
-5-7-5-4--


------------
*---------------
-------------
--------------
---------*


------------
----------------
-------------
--------------
----------



          Riff1............2nd time w/fill3
  F#5                                     4x

------
----------------
----------------


------
*---------------
---------------*


------
----------------
----------------


-4----
----------------
----------------


-4----
*-2-2-2-2-0-2-3-
-2-2-2-2-0---0-*


-2----
----------------
-----------3----


                 
Fill3...............................................


-------0-2-0---
-7---
-(7)---
-------------
-------------

-0h1-3-------3-
-----
-------
-------------
-------3-5-7-

---------------
-----
-------
-------------
-2-4-5-------

---------------
-----
-------
-------2-4-5-
-------------

---------------
-----
-------
-2-3-5-------
-------------

---------------
-----
-------
-------------
-------------

                                            Now the



 Riff1..............................  Fill2...........................
                                   2x

----------------
----------------
-------------------
-------------


*---------------
---------------*
-------------------
-------------


----------------
----------------
-------------------
-------------


----------------
----------------
-------------------
-------2-4-5-


*-2-2-2-2-0-2-3-
-2-2-2-2-0---0-*
-2-2--2-2-0-2-3----
-2-3-5-------


----------------
-----------3----
-------------------
-------------

   prince    knelt  down      for      
  communion  of the time       it     fasts                    And the

Riff2............  Fill3.........  
                  7x

----------------
-------------


*--------------*
-------------


----------------
-4-2---------


----4----2-4-5--
-----5-4-2---


*-2---5--------*
-----------5-


----------------
-------------

  father        he
  blessed      his 
  child with   the
  blood    of this  
  mass.                      The

Chorus.................................................................
 B5                       C5        D5              B5              


----------
-------------
---------
---------------
---------
---------


*---------
-------------
---------
---------------
---------
---------


--4-------
-4-----------
-5-------
-7-------------
-4-------
-4-------


--4-------
-4-----------
-5-------
-7-------------
-4-------
-4-------


*-2---2-2-
-2---2-2-----
-3---3-3-
-5-------5-3-0-
-2---2-2-
-2---2-2-


----------
-------------
---------
---------------
---------
---------

 Devil was there with the fire      burning in the air
 Demons they danced and drunk from the chalice they share
 (Third and fourth time) Care         Nobody          cared     
            

..................................................        
C5     D5        B5                C5      D5
						  4x

------
---------
-------
-------
-------
--------


------
---------
-------
-------
-------
-------*


------
---------
-4-----
-4-----
-5---7-
-9--11--


-5----
-4-0-2-4-
-4-----
-4-----
-------
--------


------
---------
-2-2-2-
-2-2-2-
-------
-------*


------
---------
-------
-------
-------
--------

                               (Second time) Nobody
       Did nobody  cared


  Fill5..........................................
   B5                          C5        B5 

------
-----
-------
---------------
-------


*-----
-----
-------
--------------*
-------


--4---
-4---
-4-----
--4-4-4-5-5-5--
-4-----


--4---
-4---
-4-----
--4-4-4-5-5-5--
-4-----


*-2---
-2---
-2-----
--2-2-2-3-3-3-*
-2-----


------
-----
-------
---------------
-------

 


/
How To Set Up Higher Praise As Your Home Page
Copyright 1999, Higher Praise HigherPraise,Inc. All rights reserved. Terms of Use

Enjoy A Life Changing Experience

 
 
 
HigherPraise, Higher Praise, HigherPraise, Higher Praise, HigherPraise

Members..Sign Up. LogIn

 
 

Higher Praise Other Sites
 
 

HigherPraise.org/
Praise And Worship
www.higherpraise.org

HigherPraise.net
Christian Resources
www.higherpraise.net

HigherPraiseTube.com
Videos And Audios
www.higherpraisetube.com.


ChristianLyrics.org

Lyrics And Chrords
www.christianlyrics.org

ChristianChordsLyrics

Lyrics And Chrords
www.christianchordslyrics.com

ChristianChordLyrics

Lyrics And Chrords
www.christianchordlyrics.com

WorshipLyrics.org
10.000 Illustrations
www.worshiplyrics.org

WorshipLyrics.net
10.000 Illustrations
www.worshiplyrics.net

PraiseLyrics.com
PowerPoint Lyrics

www.praiselyrics.com

PraiseLyrics.org
PowerPoint Lyrics

www.praiselyrics.org

1GodTube.com
Chistian Videos

www1godtube..com

OneGodTube.com
Chistian Videos

www.onegodtube..com

 

/
Copyright 1999 - 2019, Higher Praise™ HigherPraise™,Inc. All rights reserved. Terms of Use