Higher Praise - Guitar Chords, Lyrics  GuitarTabs -  Praise nad Worship Music And Christian Songs

Higher Praise - Guitar Tabs, Guitar Chords, Lyrics
   Lyrics, Chords And Tabs
   Popular Lyrics Chords Tab
   Power Point Lyrics
   Praise & Worship Music
   Christian Music Videos
   15900 Videos & Audios
   Midi Files
   Worship Questions
   Christmas Chords, Lyrics
   Lyrics, Chords Tabs Rated

Sermon Outlines And Audio Sermons
   9344 Sermon Outlines
   N.T. Sermon Outlines
   O.T. Sermon Outlines
   Special Guest Outlines
   10.000 Illustrations
   Sunday School Studies
   Bible College Studies
   Greatest Preachers
   Bible Research Tools
Audio Sermons
   2895 Audio Sermons
   85 Sermon Videos
   291 Special Guests Serm

   Complete Audio Bible
Higher Praise Sunday School Teaching
   Children's NT Studies
   Children's OT Studies

   98 Children's Midis
   Gospel For Kids Movie
   Children's JESUS Film
Higher Praise Christian Video Library ,Videos
   Christian Television
   TBN TV Live
   15,000 Videos - HP Tube
   712 Youth Music Vids
  Christian Video Library
   Praise Videos #1 & #2
   85 Sermon Videos
   Prophecy Film -Videos
   JESUS Film -Video
   Childrens JESUS Film
   Gospel For Kids Movie
   Passion Of The Christ
   Noah, Sodom, Sinai, Ark
   Tsunami Videos Photos
News And Information
   Testimonies
   Submit Lyrics, Tabs, Serm
   10.000 Illustrations
   Bible College Course
   Clipart & Web Graphics
   Greatest Preachers
   Complete Talking Bible
   Christian Chat Rooms
   Links Church Resource
   HP Statement Of Faith
Download Clipart
   Audio Sermons
   Clipart & Web Graphics
   Church Administration
   Bible Study Software
   Screen Savers Software
   Verse A Day Software
   Educational Games
   Trade Center Photos

   Soft. Search Engine
Higher Praise News
   Current News
    Archived News
   Submit News
   Newsletter   Higher Praise Interact Prayer
   Prayer For All Needs
   
Submit Lyrics, Sermons
   
Contact Higher Praise
   
Advertising 
   Privacy Policy
//
He Died For You,  Click For Answer! This Is Who Jesus Is Video

'
 
0-9 A B C D E F G H I J K L M N O P Q R S T U V W X Y Z
.

//
Click For Printable...Version Of This File
 

Brown Eyed Girl


by Van Morrison




                                Brown Eyed Girl
                                 Van Morrison



There are so many versions of this out there I figured I'd set the record
straight and give you mine which is as close as you're likely to get.

INTRO:

   
--3---5---7--5--3-
-8--10--12--10--8-

   
------------------
------------------

   
--4---5---7--5--4-
-9--10--12--10--9-

   
------------------
------------------

   
------------------
------------------

   
------------------
------------------


                                          G

   
--3---5---7--5--3-
-2-----------
-----3----

   
------------------
----3--5--7--
-----3----

   
--4---5---7--5--4-
-2-----------
-----4----

   
------------------
----4--5--7--
-----5----

   
------------------
-------------
----------

   
------------------
-------------
----------

    Repeat this a 2nd time

                                   G                 ( D )
    G                C            days when the   
   Hey where did    we go         rains came     
  
 --------3------
-------8------
-------3------
-14-14-12-10-10-

 ------3---3----
---------5----
-----3---3----
----------------

 ----4-------4--
-----5-----5--
---4-------4--
-14-14-12-11-11-

 --5-----------5
---5---------5
-5-----------5
----------------

 ---------------
-7------------
--------------
----------------

 ---------------
--------------
--------------
----------------

                                 G
    G                C          playin' a new      ( D )
   goin' down    the hollow      game
 
 --------3-----
-------8------
-------3------
------------

 ------3---3---
---------5----
-----3---3----
--3---5---7-

 ----4-------4-
-----5-----5--
---4-------4--
------------

 --5----------5
---5---------5
-5-----------5
-4---5---7--

 --------------
-7------------
--------------
------------

 --------------
--------------
--------------
------------

  ( Repeat this sequence for next verse )

   Bridge : ( just before the bass line solo kicks in )

   / = slide up

 --3--12/14--12--10--8--10--8--7--5--3--

 ---------------------------------------

 --4--12/14--12--11--9--9---9--7--5--4--

 ---------------------------------------

 ---------------------------------------

 ---------------------------------------


 This is the Barre chords I use for C & D

       C
    5th fret         7th fret
 --
---1-----
------
--------
--4--

 --
---1-----
------
--------
-----

 --
---1-----
------
--------
-----
       1=index finger
 --
---1-----
------
--------
-----
       3=ring finger
 --
---------
------
---3----
-----
       4=pinky
 --
---------
------
--------
-----
 


       For D just go up 2 frets

  Any questions , comments , or complaints, feel free to
  E-mail me or post a thread at this sight.
 


/
How To Set Up Higher Praise As Your Home Page
Copyright 1999, Higher Praise HigherPraise,Inc. All rights reserved. Terms of Use

Enjoy A Life Changing Experience

 
 
 
HigherPraise, Higher Praise, HigherPraise, Higher Praise, HigherPraise

Members..Sign Up. LogIn

 
 

Higher Praise Other Sites
 
 

HigherPraise.org/
Praise And Worship
www.higherpraise.org

HigherPraise.net
Christian Resources
www.higherpraise.net

HigherPraiseTube.com
Videos And Audios
www.higherpraisetube.com.


ChristianLyrics.org

Lyrics And Chrords
www.christianlyrics.org

ChristianChordsLyrics

Lyrics And Chrords
www.christianchordslyrics.com

ChristianChordLyrics

Lyrics And Chrords
www.christianchordlyrics.com

WorshipLyrics.org
10.000 Illustrations
www.worshiplyrics.org

WorshipLyrics.net
10.000 Illustrations
www.worshiplyrics.net

PraiseLyrics.com
PowerPoint Lyrics

www.praiselyrics.com

PraiseLyrics.org
PowerPoint Lyrics

www.praiselyrics.org

1GodTube.com
Chistian Videos

www1godtube..com

OneGodTube.com
Chistian Videos

www.onegodtube..com

 

/
Copyright 1999 - 2019, Higher Praise™ HigherPraise™,Inc. All rights reserved. Terms of Use