Higher Praise - Guitar Chords, Lyrics  GuitarTabs -  Praise nad Worship Music And Christian Songs

Higher Praise - Guitar Tabs, Guitar Chords, Lyrics
   Lyrics, Chords And Tabs
   Popular Lyrics Chords Tab
   Power Point Lyrics
   Praise & Worship Music
   Christian Music Videos
   15900 Videos & Audios
   Midi Files
   Worship Questions
   Christmas Chords, Lyrics
   Lyrics, Chords Tabs Rated

Sermon Outlines And Audio Sermons
   9344 Sermon Outlines
   N.T. Sermon Outlines
   O.T. Sermon Outlines
   Special Guest Outlines
   10.000 Illustrations
   Sunday School Studies
   Bible College Studies
   Greatest Preachers
   Bible Research Tools
Audio Sermons
   2895 Audio Sermons
   85 Sermon Videos
   291 Special Guests Serm

   Complete Audio Bible
Higher Praise Sunday School Teaching
   Children's NT Studies
   Children's OT Studies

   98 Children's Midis
   Gospel For Kids Movie
   Children's JESUS Film
Higher Praise Christian Video Library ,Videos
   Christian Television
   TBN TV Live
   15,000 Videos - HP Tube
   712 Youth Music Vids
  Christian Video Library
   Praise Videos #1 & #2
   85 Sermon Videos
   Prophecy Film -Videos
   JESUS Film -Video
   Childrens JESUS Film
   Gospel For Kids Movie
   Passion Of The Christ
   Noah, Sodom, Sinai, Ark
   Tsunami Videos Photos
News And Information
   Testimonies
   Submit Lyrics, Tabs, Serm
   10.000 Illustrations
   Bible College Course
   Clipart & Web Graphics
   Greatest Preachers
   Complete Talking Bible
   Christian Chat Rooms
   Links Church Resource
   HP Statement Of Faith
Download Clipart
   Audio Sermons
   Clipart & Web Graphics
   Church Administration
   Bible Study Software
   Screen Savers Software
   Verse A Day Software
   Educational Games
   Trade Center Photos

   Soft. Search Engine
Higher Praise News
   Current News
    Archived News
   Submit News
   Newsletter   Higher Praise Interact Prayer
   Prayer For All Needs
   
Submit Lyrics, Sermons
   
Contact Higher Praise
   
Advertising 
   Privacy Policy
//
He Died For You,  Click For Answer! This Is Who Jesus Is Video

'
 
0-9 A B C D E F G H I J K L M N O P Q R S T U V W X Y Z
.

//
Click For Printable...Version Of This File
 

Define The Great Line Album


by Underoath




I put together the highest starred tabs and made an album tab for
Underoath's Define the Great Line

Entire album in drop D 

The only song not included on here is Salmarnir 



here is the credit for the tabs

1  in regards to myself - Hangar_18
2  a moment suspended in time - padgey35
3  there could be nothing after this - mattwilham
4  you're ever so inviting - Unregistered
5  salmarnir - None
6  returning empty handed - Viciousgray
7  casting such a thin shadow - U B the band
8  moving for the sake of motion - We_Stand_Up
9  writng on the walls - Profesorhawk
10 everyone looks so good from here  - Mojoe77
11 to whom it may concern - 3lue Jay

        -------------------------------------------
                    In Regards to Myself
        -------------------------------------------

(0:04-0:31)
E
---------------0-------------------------------

B
---------------4-------------------------------

G
------------------------9-----999--------------

D
------------------------7-----777--------------

A
-0---------1/3----------8-----888---------xxxx-

D
-0h2-3/5-0-------5/10-0-7-7-7-777---3p0-2-xxxx-
x6
pm                          . .


(0:31-0:44)                           

----------------------------
------------------------------

----------------------------
------------------------------

---<2>-<2>----<2>-----------
---<2>-<2>-----<2>------------

---<2>-<2>----<2>-----------
---<2>-<2>-----<2>------------

-0-<2>-<2>-0--<2>-----------
-0-<2>-<2>-0---<2>------------

-0-<2>-<2>-0--<2>--0--2h3p2-
-0-<2>-<2>-0---<2>---0--2-/8\-
x2
pm                  .                              .

(0:44-0:56)

-------------
-------
--------------------

-------------
-------
--------------------

-------------
-------
--------------------

-0-----0-----
-------
-0-----0------------

-0-0-0-0-0-0-
-------
-0-0-0-0-0-0--------

-0-0-0-0-0-0-
-2h3p2-
-0-0-0-0-0-0--2-/8\-
x2
pm  . .   . .             . .   . . 

(0:56-0:59)

----------

----------

----------

-1-/-7--0-

-1-/-7--0-

-1-/-7--0-

(0:59-1:23)							       1st end.  2nd end.	

-----------------------------------------------------
---------
---------

*---------------------------------------------------*
---------
-----<9>-

--3-3-3-3-3-3-3-3-3-9-9-9-9-9-9-9-9-9\5-5-5-5-5-5-5--
---------
-----<9>-

--1-1-1-1-1-1-1-1-1-7-7-7-7-7-7-7-7-7\3-3-3-3-3-3-3--
-1--1--1-
-----<9>-

*-1-1-1-1-1-1-1-1-1-7-7-7-7-7-7-7-7-7\3-3-3-3-3-3-3-*
-1--1--1-
-----<9>-

--1-1-1-1-1-1-1-1-1-7-7-7-7-7-7-7-7-7\3-3-3-3-3-3-3--
-1--1--1-
-000-<9>-
x2
pm                                                      .  .  . 


(1:24-1:35)						              1st end.  2nd end 

----------------------------------------------
--------
-------

*----------------------6-6-------------------*
-10-10\-
-------

-----------------------9-9b9.5----------------
-x--x---
-------

----------------------------------------------
-8--8\--
-------

*--------8\----------0-----------3-2-XX-2-0--*
--------
-------

--002-/777\-22-2/(8)-0---------003-2-XX-2-0---
--------
-12\\\-
x2
 pm..   ..   ..                 ..

						 
(1:36-1:48)     						              1st end.  2nd end 

----------------------------------------------
--------
-------

*----------------------6-6-------------------*
-10-10\-
-------

-----------------------9-9b9.5----------------
-x--x---
-------

----------------------------------------------
-8--8\--
-------

*--------8\----------0-----------3-2-XX-2-0--*
--------
-------

--002-/777\-22-2/(8)-0---------003-2-XX-2-0---
--------
-12\\\-
x2

pm..   ..   ..                 ..


Gtr II

-----------------

-10--------------

-x--(strum alot)-

-8---------------

-----------------

-----------------


(1:48-1:58)

----------------------------------------

-10-10-10-10-10-10-10-10-10-10-10-10-10-

-x--x--x--x--x--x--x--x--x--x--x--x--x--

-8--8--8--8--8--8--8--8--8--8--8--8--8--

----------------------------------------

----------------------------------------
x4

(1:58-2:24)

----------------------------------------

----------10-10-10-10-10-10-10-10-10-10-

---10--10-x--x--x--x--x--x--x--x--x--x--

---x---x--10-10-10-10-10-10-10-10-10-10-

---8---8--8--8--8--8--8--8--8--8--8--8--

-000-0-0--8--8--8--8--8--8--8--8--8--8--
x4
pm..  .

(2:26-2:35)
Guitar I

----------------------------

-6-6-6-6---6---6-6-6-6---6--

-9-9-9-9---9---9-9-9-9---9--

----------------------------

---------0---0---------0----

---------0---0---------0----
 x3

pm       .   .         .


Guitar II

-----------------------------------------

-----------------------------------------

-10-10-10-10----10----10-10-10-10----10--

-x--x--x--x-----x-----x--x--x--x-----x---

-8--8--8--8--0--8--0--8--8--8--8--0--8---

-------------0-----0--------------0------
 x3 
pm            .     .              .

(2:35-2:36)

---------------

---------------

---------------

---------------

---------------

-0-1///-0-7\\\-

pm.      .

(2:37-2:41)
Guitar I

-----------------

-6---6-6-6-6-----

-9---9-9-9-9-----

-----------------

---0----------0--

---0----------0--
x3

pm .          .


Guitar II

-----------------------

-----------------------

-10----10-10-10-10-----

-x-----x--x--x--x------

-8--0--8--8--8--8--0---

----0--------------0---
   x3
pm   .              .


(2:41-2:42)

---------------

---------------

---------------

---------------

---------------

-0-1///-0-7\\\-

pm.      .

(2:43-2:53)

---------------------------------

---------------------------------

---------------------------------

-1-/-7--0---------1--7--0--------

-1-/-7--0---------1--7--0--------

-1-/-7--0---------1--7--0--------
x4

(2:53-2:54)

-<3>-------------------------------

-<3>-------------------------------

-<3>-(push neck forward to detune)-

-<3>-------------------------------

-<3>-------------------------------

-<3>-------------------------------


(2:54-3:05)

---------------------------------

---------------------------------

---------------------------------

-1-/-7--0---------1--7--0--------

-1-/-7--0---------1--7--0--------

-1-/-7--0---------1--7--0--------
x4

last chord
(3:05)

-----

-----

--0--

--0--

--0--

--0--


                ----------------------------------
                    A Moment Suspended In Time
                ----------------------------------

E
--------------------------------------------------------

B
-3-3-3-3-3-3-3-3----------------------------------------

G
-2-2-2-2-2-2-2-2-10-10-10-10-7-7-7-7---x4---------------

D
-0-0-0-0-0-0-0-0-10-10-10-10-5-5-5-5--------------------

A
-0-0-0-0-0-0-0-0--8--8--8--8-5-5-5-5--------------------

D
-0-0-0-0-0-0-0-0--8--8--8--8-5-5-5-5--------------------


E
--------------------------------------------------------

B
--------------------------------------------------------

G
--------------------------------------------------------

D
-3~-----------------------------------------------------

A
-2~-----------------------------------------------------

D
-1~-----------------------------------------------------



E
--------------------------------------------------------

B
-3------------------------------------------------------

G
-2--5--10-----------------------------------------------

D
-0--3--10-5/7-7-7---------------------------------------

A
-0--3---8-5/7-7-7---------------------------------------

D
-0--3---8-5/7-7-7---------------------------------------


^^^strum those

E
--------------------------------------------------------

B
-----7-7-7-7-10-10-10-10--------------------------------

G
-10---8-8-8-8--8--8--8--8-------------------------------

D
-10-----------------------------------------------------

A
--8-----------------------------------------------------

D
--8-----------------------------------------------------


^^^havent figured out the whole part yet

E
--------------------------------------------------------

B
-3---------3--------------------------------------------

G
-2-5-10--9-2-5-10--9-7----------------------------------

D
-0-5-10-10-0-5-10-10-5----------------------------------

A
-0-3--8--8-0-3--8--8-5----------------------------------

D
-0-3--8--8-0-3--8--8-5----------------------------------


^^^strum these out to the timing

E
--------------------------------------------------------

B
---6-------6---------6------6---------------------------

G
---9-x14---9-x14-----9-x2---9-x8------------------------

D
-0-------0-------0-0------0------0-0--0-----------------

A
-0-------0-------0-0------0------0-0--0-----------------

D
-0-------0-------0-0------0------0-0--0-----------------


E
---------0-----------------------------0-----1-------1----

B
---------6-------6------6--------------6-----1-x12---1----
x5
G
-3-2-------------9-x8---9-x12-3-2-------------------------

D
-3-2-0-p0--2-3-0------0-------3-2-0-p0---2-3-------0------

A
-1-0-0-p0------0------0-------1-0-0-p0-------------0------

D
-----0-p0------0------0-----------0-p0-------------0------


^^^ all x2

E
---------------------------------------------------------

B
----------6^---------------------------------------------

G
-3-2------9^---------------------------------------------

D
-3-2-0-p0------------------------------------------------

A
-1-0-0-p0------------------------------------------------

D
-----0-p0------------------------------------------------


last part of the breakdown

E
-----------------

B
------3----------

G
------2--------7-

D
--2-2-0~---2-2-5-

A
-0-1--0~--0-1--5-
 x2
D
------0~-------5-
 


E
--0-0--0-0--0--0-

B
-10-8-13-8-18-17-

G
-----------------

D
-----------------

A
-----------------

D
-----------------
 x2


E
-----------------

B
------3----------

G
------2--------7-

D
--2-2-0~---2-2-5-

A
-0-1--0~--0-1--5-

D
------0~-------5-
 x4


E
--0--0-

B
-18-17-

G
-------

D
-------

A
-------

D
-------


^^^this is the second guitar for the part above, it also ends the song

              ----------------------------------------
                 There Could Be Nothing After This
              ----------------------------------------

e :------------------------------------------------------

B :------------------------------------------------------

G :--7---9---12---10-------------------------------------

D :--x---x----x---x--------------------------------------

A :--5---7---10---8--------------------------------------

D :------------------------------------------------------



e :----------------------------------------------------------------

B :----------------------------------------------------------------

G :----------------------------------------------------------------

D :--8/00--8/000--8/00-----7---------00-8/000-8/00---7-------------

A :--8/00--8/000--8/00------8-0-5/7--00-8/000-8/00-----8-0-5/7-----

D :--8/00--8/000--8/00--\8---------7-00-8/000-8/00-\8---------7----


i havent figured out what guitar 2 plays here. it sounds like the same thing as guitar
but its higher.

e :---------------------------------------------------------------

B :-----------------------------------------------------6---------

G :-----------------------------------------------------9---------

D :--8/00--8/000--8/00----7---------00-8/000-8/00-8/000-----------

A :--8/00--8/000--8/00-----8-0-5/7--00-8/000-8/00-8/000-----------

D :--8/00--8/000--8/00--8---------7-00-8/000-8/00-8/000-----------



e :-----------------------------------------------------------

B :--------------------------6-------------------------6------

G :--------------------------9-------------------------9------

D :--8/00--8/000--8/00--8/000--8/00--8/000--8/00--8/000-------

A :--8/00--8/000--8/00--8/000--8/00--8/000--8/00--8/000-------

D :--8/00--8/000--8/00--8/000--8/00--8/000--8/00--8/000-------


e :--1\13-1\13-1\13-1\13-1\13-1\13------------------------

B :-------------------------------------------------------

G :----------------------------------12----10-------------

D :----------------------------------x-----x--------------

A :----------------------------------10----8--------------

D :-------------------------------------------------------


e :----------------------------------------------------------

B :----6-----6--------------6------6-------------------------

G :----9-----9--------------9------9-------------------------

D :--0---5-7----5h7--3h5--0----5-7---5h7--3b-----------------

A :--0---5-7----5h7--3h5--0----5-7---5h7--3b-----------------

D :--0---5-7----5h7--3h5--0----5-7---5h7--3b-----------------



e :------------------------------------------------------

B :------------------------------------------------------

G :--9----5----12----------------------------------------

D :--x----x-----x----------------------------------------

A :--7----3----10----------------------------------------

D :------------------------------------------------------



e :-------------------------------------------------------

B :-------------------------------------------------------

G :-------------------------------------------------------

D :--0--00--0-0---00000--0-0---0--00--0-0---00000--0-0-0~-

A :--0--00--0-0---00000--0-0---0--00--0-0---00000--0-0-0~-

D :--0--00--0-0---00000--0-0---0--00--0-0---00000--0-0-0~-

    ^^^that part repeats, but i have no clue what guitar 2 is playing.

e :-------------------------------------------------------

B :----6--------------------------------------------------

G :----9b-------------------------------------------------

D :--0----00-00-------------------------------------------

A :--0----00-00-------------------------------------------

D :--0----00-00-------------------------------------------


hold each chord/note here
e :-----------------------------15~---12~------------------

B :--------------------------------------13~---------------

G :---10----9------10-----7-----------------14~--12~-------

D :---x-----x------x------x--------------------------------

A :---8-----7------8------5--------------------------------

D :--------------------------------------------------------



e :------------------------------------------------------

B :------------------------------------------------------

G :--2--5---------2--5-----------------------------------

D :--2--5--5-8----2--5--5--555--8888/--------------------

A :--0--3--5-8----0--3--5--555--8888/--------------------

D :--------5-8----------5--555--8888/--------------------



repeat until the end. end song on open d.
e :------------------------------------------------------

B :------------------------------------------------------

G :---------5555--------5555---2-------------------------

D :--0~-----5555-0~-----5555---2---5---------------------

A :--0~-----3333-0~-----3333---0---5----/7--3~-----------

D :--0~----------0~----------------5---3-----------------


end on 
D-0~-

A-0~-

D-0~-


        ---------------------------------------------
                    You're Ever so Inviting
        ---------------------------------------------

Intro
e-----------------------

b-----------------------

g-9--------10----11-----

d-x(x37)---x(x8)-x(x8)--

a-7--------8-----9------

d-----------------------


Chorus guitar 1
e------------------------------

b------------------------------

g------------------------------

d-2-----3-----5------0-0-xx-0--
x4
a-2(x8)-3(x8)-5(x12)-0-0-xx-0--

d-2-----3-----5------0-0-xx-0--


Chorus guitar 2
e--------------------------------------------------------
 The third time
b--------------------------------------------------------
 guitar 1 comes in
g-14----12----17----9-----10----7-----5-----12----14-----
 guitar 2 come in
d-x(x8)-x(x8)-x(x8)-x(x8)-x(x8)-x(x8)-x(x4)-x(x4)-x(x16)-
  with this
a-12----10----15----7-----8-----5-----3-----10----12-----

d--------------------------------------------------------



verse  Both guitars
e---------------------

b---------------------

g---------------------

d-0------3-----5-2-7--
x2
a-0~-----3~----5-2-7--

d-0------3-----5-2-7--


Pre-Chorus Both guitars
e-------------------------------------------

b-------------------------------------------

g-12-----10-----5------7-----12-----14------

d-x(x12)-x(x12)--x(x8)-x(x8)-x(x12)-x(x12)--

a-10-----8------3------5-----10-----12------

d-------------------------------------------


Back to chorus-this time only x2 and no guitar 2 part.
Back to verse
e-------------------------------------

b-------------------------------------

g-17-15-17-15-19-----------7-5-7-5-3--
This time in verse,guitar 2 does this
d-------------------------------------

a-------------------------------------

d-------------------------------------


Interlude  Both guitars
e--------------------------------------------------

b--------------------------------------------------

g-------------------------------------------7------

d-3------5------0------3------5------0------x(x15)-

a-3(x15)-5(x15)-0(x32)-3(x15)-5(x15)-0(x32)-5------

d-3------5------0------3------5------0-------------



Back to chorus-x8-first 2 times are without any distortion
-
Breakdown
e--------------------------------------

b--------------------------------------

g--------------------------------------

d-7-5-3----10-----------7-5-3-------12-
x4
a--------------------------------------

d--------------------------------------


  Guitar 1
e----------------------

b----------------------

g----------------------

d-0-5-5-5-5-5-5--5xx3--
x8
a-0-5-5-5-5-5-5--5xx3--

d-0-5-5-5-5-5-5--5xx3--



Guitar 2
e------------------------
    on the fifth time guitar
b------------------------
    1 comes in, guitar 2 comes
g------------------------
x3  in with this.
d-7-3-7-3-7---7-3-7-3-2--

a------------------------

d------------------------


outro
e--------

b--------

g--------

d--7-3-2-

a--7-3-2-

d--7-3-2-


Salmarnir-----------------------------------None if you want message at my
email.


             ---------------------------------------------
                        Returning Empty Handed
             ---------------------------------------------


Guitar 1
e
---------------------------------------------------------------------------

B
---------------------------------------------------------------------------

G
-7~---9~---12~--10~--------------------------------------------------------

D
-x----x----x-----x---------------------------------------------------------

A
-5~---7~---10~---8~--------------------------------------------------------

D
---------------------------------------------------------------------------


Guitar 2
e
---------------------------------------------------------------------------

B
---------------------------------------------------------------------------

G
---------------------------------------------------------------------------

D
-0~------------------------------------------------------------------------

A
-0~------------------------------------------------------------------------

D
-0~------------------------------------------------------------------------


"How Peaceful it Feels"

Guitar 2
e
----------------------------------------------------------------------------------------------

B
----------------------------------------------------------------------------------------------

G
----------------------------------------------------------------------------------------------

D
-8\-0-0---8\-0-0-0---8\-0-0-------7p0-----------8-0-0---8\-0-0-0---8\-0-0-------7p0-----------

A
-8\-0-0---8\-0-0-0---8\-0-0-----------8p0-------8-0-0---8\-0-0-0---8\-0-0-----------8p0-------

D
-8\-0-0---8\-0-0-0---8\-0-0---/8----------0h3~--8-0-0---8\-0-0-0---8\-0-0---/8----------0h3~--


Guitar 1- this part I'm really not sure about because its so faint, but I tried, but I 
what seemed to make the most sense.  Email me if you want me to make some corrections or something.
e
-------------------------------------------------------------------------------

B
-------------------------------------------------------------------------------

G
-------------------------------------------------------------------------------

D
------------------------------------------------------------------7p0----------
x2
A
-1p0--5h7p0--3p0-0--1p0--5h7p0--3p0-0--3p0-0--1p0--5h7p0--3p0--/8-----8p0------

D
--------------------------------------------------------------------------0h3--


"You've brought me here for THIS?!?"

Guitar 1 (guitar 2 isn't playing)
e
----------------------------------------------------------0~--------

B
----------------------------------------------------------6\5-------

G
--------------------------------------------------------------------

D
-2p0-------------2p0----------------2p0-----------------------------
x2
A
--------------------------------------------------------------------

D
-----3p0-3p0-0-------3p0-3p0-0-3p0------3p0-3p0-0--3/8-0------------


"...WITH ME!"

Both Guitars
e
----------------------------------------------------------------------------------------

B
--------------------------------------------------------------------------------------6-

G
--------------------------------------------------------------------------------------9-

D
-8\-0-0---8\-0-0-0---8\-0-0-------7p0-----------8-0-0---8\-0-0-0---8\-0-0---8\-0-0--x---

A
-8\-0-0---8\-0-0-0---8\-0-0-----------8p0-------8-0-0---8\-0-0-0---8\-0-0---8\-0-0--x---

D
-8\-0-0---8\-0-0-0---8\-0-0---/8----------0h3~--8-0-0---8\-0-0-0---8\-0-0---8\-0-0--x---


Still Both Guitars

e
-------------------------------------------

B
----------------------------------------6--

G
----------------------------------------9--

D
-8\-0-0---8\-0-0-0---8\-0-0---8\-0-0--x----
x2
A
-8\-0-0---8\-0-0-0---8\-0-0---8\-0-0--x----

D
-8\-0-0---8\-0-0-0---8\-0-0---8\-0-0--x----


Right after "...as fast as it leaves"

Guitar 1

e
------------------------------------------------------

B
---0-6-0----0-6-0----0-6-0----0-6-0----0-6-0----0-6-0-

G
-9---9----9---9----9---9----9---9----9---9----9---9---

D
------------------------------------------------------

A
------------------------------------------------------

D
------------------------------------------------------


Guitar 2- this is digitally looped or something, but I'm guessing this is how they would 
it live.

e
---0/13-----0/13-----0/13-----0/13-----0/13-----0/13--

B
------------------------------------------------------

G
------------------------------------------------------

D
------------------------------------------------------

A
------------------------------------------------------

D
------------------------------------------------------


Guitar 1

e
----------------------

B
----------------------

G
--12-(x8)---10-(x8)---

D
---x---------x--------

A
--10---------8--------

D
----------------------


Guitar 2

e
----------------------

B
----------------------

G
----------------------

D
--5-(x8)-----3-(x8)---

A
--5----------3--------

D
--5----------3--------


"Now my eyes flash with WHITE"

Both Guitars- I personally like to play this using powerchords instead of single notes 
the low D string, but I think this is how it's played on the record.

e
---------------------------------------------

B
-----5-------5------------5-------5----------

G
-----8-------8------------8-------8----------

D
---------------------------------------------

A
---------------------------------------------

D
--0-----5-7-0---5h7-3h5-0----5-7-0---5h7-3~--


e
---------------------------------------------

B
-----5-------5------------5-------5----------

G
-----8-------8------------8-------8----------

D
---------------------------------------------

A
---------------------------------------------

D
--0-----5-7-0---5h7-0h3-0----5-7-0---5h7-3~--



"Here again and again..."

Guitar 1
e
-----------------------------

B
-----------------------------

G
--9-(x16)--5-(x8)--12-(x8)---

D
--x--------x-------x---------

A
--7--------3-------10--------

D
-----------------------------


Guitar 2
e
-----------------------------

B
-----------------------------

G
-----------------------------

D
--7-(x16)--3-(x8)--10-(x8)---

A
--7--------3-------10--------

D
--7--------3-------10--------


"The floor is more fitting for my face"

Both Guitars (listen to song for actual rhythm)
e
-------------------------

B
-------------------------

G
-------------------------

D
-0--00--0-0--00000--0-0--
x2
A
-0--00--0-0--00000--0-0--

D
-0--00--0-0--00000--0-0--


"Here again?  Here again?  This is getting old"

Both guitars(?)- the last strike is muted almost immediately after it is hit.
e
----------------------

B
-6----6----6----6-----

G
-9----9----9----9-----

D
-0----0----0----0---0-

A
-0----0----0----0---0-

D
-0----0----0----0---0-


"Here again?  Here again?  I'm being watched.  This is overwhelming"

Guitar 1-(not sure on this part)
e
--------------------------------
   
-----------------------------0-

B
--------------------------------
   
-----------------------------4-

G
--------------------------------
   
-------------------------------

D
--------------------------------
x3 
-------------------------------

A
--0h5h7p0-3p0-0-0h5h7p0-3p0-0-3-
   
-0h5h7p0-3p0-0-0h5h7p0-3p0-0---

D
--------------------------------
   
-------------------------------


Guitar 2
e
-------------------------

B
-------------------------

G
-------------------------

D
-0--00--0-0--00000--0-0--
x2
A
-0--00--0-0--00000--0-0--

D
-0--00--0-0--00000--0-0--


Guitar 1- syncs up with Guitar 2 on the dissonant note only.  All the rest is distorted 
until the end where an 8th fret A string/10th fret G string octave bleeds into the next 
before its struck again at the beginning of the verse.

Guitar 2-
e
--------------------------------------

B
------6-------------------------------

G
------9-------------------------------

D
--------------------------------------

A
--00-----00--00------00-----00--00----

D
--00-----00--00------00-----00--00----


Guitar 1
e
------------------------------------------

B
------------------------------------------

G
-10~-------9~------10~--------------------

D
--x--------x--------x-------------8888888\

A
--8~-------7~-------9~------------8888888\

D
----------------------------------8888888\


Guitar 2
e
------------------------------------------

B
------------------------------------------

G
--------------------7~-------9~-----------

D
-0~--------0~-------x--------x----8888888\

A
-0~--------0~-------5~-------7~---8888888\

D
-0~--------0~---------------------8888888\


McTague uses a reverb petal of some sort here, so each note is struck three times and 
for a while.  Guitar 2 is absent.

"As you dig your feet in I will sink my teeth into the floor"

Guitar 1
e
---15~------12~--------------------------

B
---------------------13~-----------------

G
------------------------------14~--12~---

D
-----------------------------------------

A
-----------------------------------------

D
-----------------------------------------


"As the light begins to breach the border"

Guitar 1-play each chord very fast many times
e
---------------------------------------------------------------------------

B
---------------------------------------------------------------------------

G
---22-------21-------19-------17-------22-------21-------17-------14-------

D
----x--------x--------x--------x--------x--------x--------x--------x-------

A
---20-------19-------17-------15-------20-------19-------15-------12-------

D
---------------------------------------------------------------------------


Guitar 2
e
--------------------------------------

B
--------------------------------------

G
--------------------------------------

D
---7-(x16)-10-(x16)--5-(x25)--8-(x7)--

A
---7-------10--------5--------8-------

D
---7-------10--------5--------8-------


Closing verses

"Aware of every step"

Part 1

Both guitars
e
------------------------------------

B
------------------------------------

G
------------------------------------

D
-0-0---00-0-00--10-10-10-10-10-10---
x2
A
-0-0---00-0-00--10-10-10-10-10-10---

D
-0-0---00-0-00--10-10-10-10-10-10---


Guitar 1
e
----------------------------------------------------

B
----------------------------------------------------

G
-9-(x6)-11-(x6)-14-(x12)-12-(x6)-7-(x6)-------------

D
-x-------x-------x--------x------x------------------

A
-7-------9------12-------10------5----------/7--3~--

D
-----------------------------------------3----------


Guitar 2
e
--------------------------------

B
--------------------------------

G
--------------------------------

D
-7-(x24)---5-(x12)--------------

A
-7---------5------------/7--3~--

D
-7---------5---------3----------


Part 2

Both guitars
e
------------------------------------

B
------------------------------------

G
------------------------------------

D
-0-0---00-0-00--10-10-10-10-10-10---
x2
A
-0-0---00-0-00--10-10-10-10-10-10---

D
-0-0---00-0-00--10-10-10-10-10-10---


Guitar 1
e
-----------------------------------------------

B
-----------------------------------------------

G
--9-(x6)-10-(x6)-12-(x12)-14-(x12)-------------

D
-----------------------------------------------

A
--7-------8------10-------12-----------/7--3~--

D
------------------------------------3----------


Guitar 2
e
--------------------------------

B
--------------------------------

G
--------------------------------

D
-7-(x24)---5-(x12)--------------

A
-7---------5------------/7--3~--

D
-7---------5---------3----------


Guitars one and two play that twice more (part 1, part 2, part 1, part 2, end).

Guitar 3-(played over the last part 1/part 2 verse)-played really fast many times.
e
----------------------

B
----------------------

G
--22----17----14------

D
----------------------

A
--20----15----12------

D
----------------------


I THINK there's a fourth guitar track playing over the other three on the very last 
2", but its too faint for me to figure out.

Yeah, so basically I think this is probably the closest tab to the actual song out there 
now.  Email me if you got some comments or corrections because I need this sheezy to be perfect.

Word.


 /  slide up

 \  slide down

 h  hammer-on

 p  pull-off

 ~  vibrato

 +  harmonic

 x  Mute note
===========================================


                ----------------------------------------
                      Casting Such a Thin Shadow
                ----------------------------------------

/-slide up
\-slide down
*-harmonics

x#-play riff number amount
(x#)-play the note number amount
x-scratch
pm-palm mute

This is my favorite Underoath song and it's fun to play so i hope i did good enough-PMT

Intro(keyboard): 00:00
E
------------------------------

B
------------------------------

G
------------------------------

D
------------------------------

A
--5-8-7----5-8-7------5-3--0--

D
--------------------3---------


Guitar 1: 00:16
E
------------------------------------------------------

B
-------------------------------------------------3----

G
--9/10-9-7/9-7-----9/10-9-7/9-7------------------2----

D
---------------7----------------7---------------------

A
------------------------------------3/10---10\5-------

D
------------------------------------------------------


guitar 2: 00:16
E
------------------------------------------------------

B
------------------------------------------------------

G
-----------12---------------12----------10-9-----5-4--

D
----3/10-------------3/10-----------------------------

A
--5----------------5----------------3/10----10\5------

D
------------------------------------------------------


guitar 1: 00:33
E
-------------------------------------------------------

B
---------------------------------8------------------3--

G
--9/10-9-7/9-7-----9/10-9-7/9-7---------------------2--

D
---------------7----------------7----------------------

A
------------------------------------3/10----10\5-------

D
-------------------------------------------------------


guitar 2: 00:33
E
--------------------------------------------------------------

B
--------------------------------------------------------------

G
-----------12--------------------10-9----5-4----4-5-5--4-5-5--

D
----3/10-------------3/10-------------------------------------

A
--5-----------------------------------------------------------

D
--------------------------------------------------------------


guitar 1: 00:50
E
------------------------------------------------------

B
-------------------------------------------------3----

G
--9/10-9-7/9-7-----9/10-9-7/9-7------------------2----

D
---------------7----------------7---------------------

A
------------------------------------3/10---10\5-------

D
------------------------------------------------------


guitar 2: 00:50
E
------------------------------------------------------

B
------------------------------------------------------

G
-----------12---------------12----------10-9-----5-4--

D
----3/10-------------3/10-----------------------------

A
--5----------------5----------------3/10----10\5------

D
------------------------------------------------------


guitar 1: 01:06
E
-------------------------------------------------------

B
----------------------------------------------------3--

G
--9/10-9-7/9-7-----9/10-9-7/9-7---------------------2--

D
---------------7----------------7----------------------

A
-------------------------------------3/10----10\5------

D
-------------------------------------------------------


guitar 2: 01:06
E
-------------------------------------------------------------

B
-------------------------------------------------------------

G
-----------12--------------------10-9-----5-4----4-5-5--4-5--

D
----3/10-------------3/10------------------------------------

A
--5----------------------------------------------------------

D
-------------------------------------------------------------


guitar 2: 01:23
E
-------------------------------------------------------

B
-------------------------------------------------------

G
-----------------77-55---------------------------------

D
--7----------------------------------------------------

A
-----000000000000-----00000-7-5-7-5-7-5-7-5------------

D
---------------------------5-5-5-5-5-5-5-5---3(x7)--0--


guitar 1: 01:32
E
---------------------------------------12*---------------

B
----13---12----------13---12---13---12---12*----13---12--

G
--9----9-----------9----9----9----9-----------9----9-----

D
---------------------------------------------------------

A
---------------------------------------------------------

D
---------------------------------------------------------


guitar 1: 01:57
E
----------------------12*---------------

B
----13---12---13---12---12*----13---12--

G
--9----9----9----9-----------9----9-----

D
----------------------------------------

A
----------------------------------------

D
----------------------------------------


E
------------12*----

B
----13---12---12*--

G
--9----9-----------

D
-------------------

A
-------------------

D
-------------------
x3

guitar 2: 01:40
E
-----------------------------------

B
-----------------------------------

G
----------77-55--------------------

D
-----------------------------------

A
--0(x16)---------------------------

D
-----------------5(x16)--3(x7)--0--
x3

guitar 1: 02:30
E
-----------------------------------------------------------

B
---5-5-5-5-5-5-5-5--6--6--6--6--6--6--6--6--5-5-5-5-5-5-5--

G
--7-7-7-7-7-7-7-7--7--7--7--7--7--7--7--7--7---7---7---7---

D
-----------------------------------------------------------

A
-----------------------------------------------------------

D
-----------------------------------------------------------


guitar 1 continued:
E
-----------------------------------

B
---6--6--6--6--6--6--6--6--5(x14)--

G
--7--7--7--7--7--7--7--7---7-------

D
-----------------------------------

A
-----------------------------------

D
-----------------------------------


guitar 2: 02:30 palm muted
E
------------------------------------

B
------------------------------------

G
------------------------------------

D
----------------7(x8)-9(x4)-10(x4)--

A
--0(x16)-3(x16)-7-----7-----7-------

D
--0------3------7-----7-----7-------


guitar 2 continued: palm muted
E
-------------------------------------------

B
-------------------------------------------

G
-----------------------------------7(x16)--

D
----------------7(x8)-9(x4)-10(x4)-5-------

A
--5(x16)-3(x16)-7-----7-----7------5-------

D
--5------3------7-----7-----7------5-------


guitar 1: 02:58 listen cd to hear how many times to play each note
E
-------------------------------------------

B
--5/17----15----13----12----10----8--8/10--

G
-------------------------------------------

D
-------------------------------------------

A
-------------------------------------------

D
-------------------------------------------


guitar 2: 02:59
E
-----------------------------------

B
-----------------------------------

G
-----------------------------------

D
--7(x32)-5(x16)-----------------3--

A
--7------5-------3-7-3---0-3-5-3---

D
--7------5-------3-----0-----------
x2

guitar 2 contiued:
E
-----

B
-----

G
-----

D
--7--

A
--7--

D
--7--


guitar 1: 03:33
E
-------------------------------------

B
-------------------------------------

G
-------------------------------------

D
------------0-----------0------------

A
--------0-----0-------0---0----------

D
--0-3/7---7-----0-3/7-------0-3-3-3--
x1

E
---------------------------------------

B
---------------------------------------

G
---------------------------------------

D
--------0-----0-----------0------------

A
----------0-----0-------0---0----------

D
--0-3/7-----7-----0-3/7-------0-3-3-3--
x3

guitar 1/keyboard: 03:49
E
--------------------------------------------------------

B
--10(x16)-10(x16)-10(x32)-10(x16)-10(x32)-10(x16)-------

G
--14------12------9-------14------12------9-------------

D
--------------------------------------------------------

A
--------------------------------------------------xxxx--

D
--------------------------------------------------xxxx--


guitar 2: 03:49
E
-----------------------

B
-----------------------

G
-----------------------

D
-----------------------

A
--7777\33/777777\3333--

D
--7777\33/777777\3333--
x7

guitar 2: 04:14
E
-----------------------

B
-----------------------

G
-----------------------

D
-----------------------

A
--7777\33/777777\3333--

D
--7777\33/777777\3333--

                   pmpm

guitar 2: 04:23
E
------------------------------------------

B
------------------------------------------

G
------------------------------------------

D
--7(x16)-9(x16)-5(x16)-----------------3--

A
--7------7------5-------3-7-3---0-3-5-3---

D
--7------7------5-------3-----0-----------
x2

guitar 2: 04:56
E
-------------------------

B
-------------------------

G
-------------------------

D
-------------------------

A
--3/7777\33/777777\3333--

D
--3/7777\33/777777\3333--


E
-----------------------

B
-----------------------

G
-----------------------

D
-----------------------

A
--7777\33/777777\3333--

D
--7777\33/777777\3333--
x7

guitar 1: plays when guitar 2 starts 5th time 05:13 listen to cd
E
---------------------

B
--18---17---13---15--

G
---------------------

D
---------------------

A
---------------------

D
---------------------


guitar 1: 05:29
E
------

B
--18--

G
------

D
------

A
------

D
------


guitar 2: 05:29
E
-----

B
-----

G
-----

D
--0--

A
--0--

D
--0--


outro(keyboard): 05:29
E
------------------------------

B
------------------------------

G
------------------------------

D
------------------------------

A
--5-8-7----5-8-7------5-3--0--

D
--------------------3---------
x2


             ----------------------------------------
                  Moving for the Sake of Motion
             ----------------------------------------

Intro (x2)

----------------------------------------------------------

----------------------------------------------------------

-11--------------12------11------16-------14------11------

--X-(x16)-9-------X-(x4)--X-(x4)--X-(x16)--X-(x8)--X-(x8)-

--9-------9-(x8)-10-------9------14-------12-------9------

----------9-----------------------------------------------


Verse

--------------------------------------------------
 
--------

--------------------------------------------------
 
--------

-9-------555777----------16-------555777----------
 
----11~-

-X-(x16)-XXXXXX777777777--X-(x16)-XXXXXX777777777-
 
-5~--X~-

-7-------333555777777777-14-------333555777777777-
 
-5~--9~-

---------------777777777----------------777777777-
 
-5~-----


--------------------------------------------------

--------------------------------------------------

-9-------555777----------16-------555777----------

-X-(x16)-XXXXXX777777777--X-(x16)-XXXXXX777777777-

-7-------333555777777777-14-------333555777777777-

---------------777777777----------------777777777-


------------------------------------

------------------------------------

----------------14/16-16--------11\-

-5~--------------X/-X--X---------X\-

-5~-9-5-9-5-9-5-12/14-14-9-5-9-5-9\-

-5~---------------------------------


------------------------
     
---------------------------------

------------------------
     
---------------------------------

---111111---111111------
(x4) 
-5-5-5-5-5-5-5-5-7-7-7-7-7-7-7-7-

-2--X-X-X-2--X-X-X-4440-
     
-X-X-X-X-X-X-X-X-X-X-X-X-X-X-X-X-

-2--9-9-9-2--9-9-9-4440-
     
-3-3-3-3-3-3-3-3-5-5-5-5-5-5-5-5-

-2--------2--------4440-
     
---------------------------------


--------------------------
     
--------------------------

--------------------------
     
--------------------------

----111111----111111------
(x2) 
-9\-111111-9\-111111------
(x2)

-2\--X-X-X-2\--X-X-X-4440-
     
-X\--X-X-X-X\--X-X-X-4440-

-2\--9-9-9-2\--9-9-9-4440-
     
-7\--9-9-9-7\--9-9-9-4440-

-2\--------2\--------4440-
     
---------------------4440-


Fill

-----

-----

-16~-

--X--

-14~-

-----


Chorus

----------------------------------------------------------

----------------------------------------------------------

-11--------------12------11------16-------14------11------
(x2)

--X-(x16)-9-------X-(x4)--X-(x4)--X-(x16)--X-(x8)--X-(x8)-

--9-------9-(x8)-10-------9------14-------12-------9------

----------9-----------------------------------------------


Bridge (especially not sure about this part, help please)

-7-----------7-----------
      
----------------------------------

---5-8-5-7-8---5-8-5-7-5-
      
----------------------------------

-------------------------
(x10) 
-9-9-9-9-9-99-11-11-11-11-11-1111-

-------------------------
      
-X-X-X-X-X-XX--X--X--X--X--X--X-X-

-------------------------
      
-7-7-7-7-7-77--9--9--9--9--9--9-9-

-------------------------
      
----------------------------------


--------------------------------
 
-----------

--------------------------------
 
-----------

-7-7-7-7-7-7-7-7-9999999999999\-
 
-9-12------
(x4)

-X-X-X-X-X-X-X-X-XXXXXXXXXXXXX\-
 
-X--X-(x3)-

-5-5-5-5-5-5-5-5-7777777777777\-
 
-7-10------

--------------------------------
 
-----------


 Outro                    End On This

---------------------
     
----

---------------------
     
----

-9\-12-9\-12-1111117-
(x4) 
-9\-

-X\--X-X\--X--X-X-XX-
     
-X\-

-7\-10-7\-10--9-9-95-
     
-7\-

---------------------
     
----



               ---------------------------------------
                        Writing on the Walls
               ---------------------------------------

Intro

Guitar 1
e
-----------------------------------
  e
-----------------------------------

B
-6-----6-----8-----6---------------
  B
-6-----6-----8-----6~--------------

G
-5-x16-5-x16-7-x16-5-x16-----------
  G
-5-x16-5-x16-7-x16-5~--------------

D
-x-----x-----x-----x---------------
  D
-x-----x-----x-----x---------------

A
-5-----x-----x-----3---------------
  A
-5-----x-----x-----3~--------------

D
-------5-----8---------------------
  D
-------5-----8---------------------


Verse 

Guitar 1 
e
---------------------------------------------------------------------------

B
---------------------------------------15--------15---------15-------------

G
-14--14--14--14--12--12--14--14------17--17----17--17-----17--17-----------

D
---15--15--15--15--15--15--15--15--15------15~-------15~-------------------

A
---------------------------------------------------------------------------

D
---------------------------------------------------------------------------


e
-17--17-20-17-----17--17-18-17----15--15-17-15----15--15-17-15-------------

B
---18---------18~---18--------18~---18--------18~---18--------18\----------

G
---------------------------------------------------------------------------

D
---------------------------------------------------------------------------

A
---------------------------------------------------------------------------

D
---------------------------------------------------------------------------


Guitar 2
e
---------------------------------------------------------------------------

B
---------------------------------------------------------------------------

G
-7-----7-----10----12------------------------------------------------------

D
-7-x16-5-----8-----10------------------------------------------------------

A
-5-----5-x16-8-x16-10-x16--------------------------------------------------

D
-------5-----8-----10------------------------------------------------------


Verse 2

Guitar 1
e
-----------------------------------
  e
---------------------------8-8-5-5-

B
---6~----6-6-6-6-6-6-6-6-10-10-8-8-
  B
---6~-----6-6-6-6-6-6-6-6-6-6-6-6--

G
-----9~-9-9-9-9-9-9-9-9-9--9--9-9--
  G
-----9~--9-9-9-9-9-9-9-9-----------

D
-0---------------------------------
  D
-0---------------------------------

A
-0---------------------------------
  A
-0---------------------------------

D
-0---------------------------------
  D
-0---------------------------------


Guitar 2
e
-----------------------------------
  e
-----------------------------------

B
-----------------------------------
  B
-----------------------------------

G
-7-10-9~---------------------------
  G
-7---5~---------------/12-12-12-12-

D
-7-x--x----------------------------
  D
-7-5-5~----------------x--x--x--x--

A
-5-8--7~---------------------------
  A
-5-5-3~---------------/10-10-10-10-

D
-----------------------------------
  D
---5-------------------------------


Pre-Chorus

Guitar 1           v 1:08
e
-----------------------------------
  e
-----------------------------------

B
-6---------------6-----------------
  B
-6---------------6-----------------

G
-9---------------9-----------------
  G
-9---------------9-----------------

D
-0-x32-----------x-x32-------------
  D
-0-x32-----------x-x32-------------

A
-0---------------x-----------------
  A
-0---------------x-----------------

D
-0---------------x-----------------
  D
-0---------------x-----------------

   ^ 1:02          ^ Mute these with your thumb(Curl it all the way over)

Guitar 2
e
---------------------------------------------------------------------------

B
---------------------8--8--8--8--8--8--8--8--------------------------------

G
-9-----10----12----10-10-10-10-10-10-10-10---------------------------------

D
-x-x16-x--x8-x--x8---------------------------------------------------------

A
-7-----8-----10------------------------------------------------------------

D
---------------------------------------------------------------------------


  v this part's played when guitar 1's riff is repeated
e
---------------------------------------------------------------------------

B
---------------------------10--10--10--10--10--10--10--10------------------

G
-9-----10----12----14----12--12--12--12--12--12--12--12--------------------

D
-x-x16-x--x8-x--x4-x--x4---------------------------------------------------

A
-7-----8-----10----12------------------------------------------------------

D
---------------------------------------------------------------------------


"We Walk Alone" 

Guitar 1 - 1:23 
e
-----------------------------------
  e
-----------------------------------

B
-----------------------------------
  B
-----------------------------------

G
-----------------------------------
  G
-----------------------------------

D
-0-0--0-0-3---3--------------------
  D
-3-3-3-3-3-3-3-3-3-3---------------

A
-0-0--0-0--7--7-x32----------------
  A
-7b7b7b7b7b8-5-5-5-5---------------

D
-0-0--0-0--------------------------
  D
-----------------------------------

                ^ On the last couple of these play this ^
                  Bend the "7" slowly over multiple strums
                  to "8" for that cool sound. And repeat
                  the above riffs twice.

Guitar 2 - Comes in on the second time the above is played
           I'm not too sure about this part, I think what I put as sliding
           should really be a wah on some note, and the harmonics probably
           aren't right, (All I have is an acoustic) but it should give you
           the right ideas
e
---------------------------------------------------------------------------

B
---9*-------------------------6--------------------------------------------

G
-9*--9*--9/16\9--9~--9--9/14--9b10-----------------------------------------

D
---------------------------------------------------------------------------

A
---------------------------------------------------------------------------

D
---------------------------------------------------------------------------


"We Walk Alone - Pt.2"

Guitar 1
e
---------------------------------------------------------------------------

B
---------------------------------------------------------------------------

G
---------------------------------------------------------------------------

D
-0-0--0-0-3-3-3-3-3-3-3-3-3-3-3-3-3-3-3-3-3-3-3-3-3-3-3-3-3-3-3-3-3-3-3-3--

A
-0-0--0-0-7-7-7-7-7-7-7-7-7-7-7-7-7-7-7-7-7-7-7-7b7b7b7b7b7b7b7b8-5-5-5-5--

D
-0-0--0-0------------------------------------------------------------------


Guitar 2
e
-----------------------------------------------------------------------8-8-

B
----------6-6-6-6-6-6-6-6-6-6-6-6-6-6-6-6-6-6-6-6-6-6-6-6-6-6-6-6--6-6-6-6-

G
----------9-9-9-9-9-9-9-9-9-9-9-9-9-9-9-9-9-9-9-9b9b9b9b9b9b9b9b10-7-7-7-7-

D
-0-0--0-0------------------------------------------------------------------

A
-0-0--0-0------------------------------------------------------------------

D
-0-0--0-0------------------------------------------------------------------


Both Guitars
e
-----------------------------------

B
-----------------------------------

G
-----------------------------------

D
-0-0--0-0--------------------------
 Drum Fill
A
-0-0--0-0--------------------------

D
-0-0--0-0--------------------------


"You're almost Gone!"

Guitar 1
e
---------------------------------------------------------------------------

B
---------------------------------------------------------------------------

G
---------------------------------------------------------------------------

D
-8-8-8~--5-5-5~--0-0-0~--0~------------------------------------------------

A
-8-8-8~--5-5-5~--0-0-0~--0~------------------------------------------------

D
-8-8-8~--5-5-5~--0-0-0~--0~------------------------------------------------


Guitar 2
e
---------------------------------------------------------------------------

B
------------10~------------------------------------------------------------

G
-7~-9~-10~------12~-10~---------10~-12~-10~--------------------------------

D
-x--x--x----------------12~-12~--------------------------------------------

A
-5~-7~-8~------------------------------------------------------------------

D
---------------------------------------------------------------------------


e
----------------------------------17~------------------17~-----------------

B
--------------------------------------15~----------15~---------------------

G
-9~-10~----------------------14~----------17~--17~-------------------------

D
-x--x-------15~-17~--15~-17~-----------------------------------------------

A
-7~-8~--17~----------------------------------------------------------------

D
---------------------------------------------------------------------------


Guitar 3
e
---------------------------------------------------------------------------

B
---------13~---------------------------------------------------------------

G
-----10~-----10~-----10~---------------------------------------------------

D
-12~-------------12~-------------------------------------------------------

A
---------------------------------------------------------------------------

D
---------------------------------------------------------------------------


Breakdown

Guitar 1 (I think Timmy McTague the guitarist uses a bow on this part
          like a violin, or they're keyboard parts, but i'm sure 
          these are the notes)
e
-----------------------------------
 e
------------------------------------

B
-----------------------------------
 B
------------------------------------

G
-7~-5~-7~-9~-5~--------------------
 G
-7~-5~-7~-9~-5~---------------------

D
-----------------------------------
 D
------------------------------------

A
-----------------------------------
 A
------------------------------------

D
-----------------------------------
 D
------------------------------------


Guitar 2
e
-----------------------------------
 e
------------------------------------

B
-----------------------------------
 B
------------------------------------

G
-----------------------------------
 G
------------------------------------

D
-----------------------------------
 D
------------------------------------

A
-5~----5~-7~-8~--------------------
 A
-5~----5~-8~------------------------

D
----5~-----------------------------
 D
----5~-------10~--------------------


Outro

Guitar 1
e
-----------------------------------
  e
-----------------------------------

B
-----------------------------------
  B
-----------------------------------

G
-----------------------------------
  G
-----------------------------------

D
-0-0-3----0-0--0-0--0-0-0----------
  D
-0-0-3----0-0--0-0--0-0-3---0~-----

A
-0-0-7b8--0-0--0-0--0-0-0----------
  A
-0-0-7b8--0-0--0-0--0-0-7b8-0~-----

D
-0-0------0-0--0-0--0-0-0----------
  D
-0-0------0-0--0-0--0-0-----0~-----


Guitar 2
e
-----------------------------------
  e
-----------------------------------

B
-----6-----------------------------
  B
-----6------------------6----------

G
-----9b10--------------------------
  G
-----9b10---------------9b10-------

D
-0-0------0-0--0-0--0-0-0----------
  D
-0-0------0-0--0-0--0-0------0~----

A
-0-0------0-0--0-0--0-0-0----------
  A
-0-0------0-0--0-0--0-0------0~----

D
-0-0------0-0--0-0--0-0-0----------
  D
-0-0------0-0--0-0--0-0------0~----




                    -----------------------------------------
                        Everyone Looks so Good From Here
                    -----------------------------------------

0:00 - 0:16

e
-------------------------------0--------------------------------------

B
-------------------------------6--------------------------------------

G
-------------------------------9--------------------------------------

D
-7p0-5-3-7p0-5-3-7p0-5-3-7p0-5----------------------------------------

A
-7p0-5-7-7p0-5-7-7p0-5-7-7p0-5----------------------------------------

D
-7p0-5---7p0-5---7p0-5---7p0-5----------------------------------------


e
-------------------------------0--------------------------------------

B
-------------------------------6--------------------------------------

G
-------------------------------9--------------------------------------

D
-7p0-5-3-7p0-5-3-7p0-5-3-7p0-5----------------------------------------

A
-7p0-5-7-7p0-5-7-7p0-5-7-7p0-5----------------------------------------

D
-7p0-5---7p0-5---7p0-5---7p0-5----------------------------------------


e
-------------------------------0--------------------------------------

B
-------------------------------6--------------------------------------

G
-------------------------------9--------------------------------------

D
-7p0-5-3-7p0-5-3-7p0-5-3-7p0-5----------------------------------------

A
-7p0-5-7-7p0-5-7-7p0-5-7-7p0-5----------------------------------------

D
-7p0-5---7p0-5---7p0-5---7p0-5----------------------------------------


e
----------------------------------------------------------------------

B
----------------------------------------------------------------------

G
----------------------------------------------------------------------

D
-7p0-5-3-7p0-5-3-7p0-5-3-12/0-----------------------------------------

A
-7p0-5-7-7p0-5-7-7p0-5-7-12/0-----------------------------------------

D
-7p0-5---7p0-5---7p0-5---12/0-----------------------------------------


0:17 - 0:30

e
----------------------------------------------------------------------

B
----------------------------------------------------------------------

G
----------------------------------------------------------------------

D
-7p0-5p0-7p0-5p0-7p0-5p0-7p0-5p0-7p0-5p0-7p0-5p0-7p0-5p0-7p0-5p0-0~---

A
-7p0-5p0-7p0-5p0-7p0-5p0-7p0-5p0-7p0-5p0-7p0-5p0-7p0-5p0-7p0-5p0-0~---

D
-7p0-5p0-7p0-5p0-7p0-5p0-7p0-5p0-7p0-5p0-7p0-5p0-7p0-5p0-7p0-5p0-0~---


0:31 - 0:35

The strumming shown here is off, but you guys get the idea :)

e
-0-0-0-0-0-0-0-0-0-0-0-0-0-0-0--0--0--0--0--0--0--0--0--0--0--0---

B
-6-6-6-6-6-6-6-6-6-6-6-6-6-6-10-10-10-10-10-10-17-17-17-17-17-17--

G
------------------------------------------------------------------

D
------------------------------------------------------------------

A
------------------------------------------------------------------

D
------------------------------------------------------------------


0:36 - 0:57

e
----0---------------------0-----------------0-----------------0----------0-

B
----6---------------------6-----------------6-----------------6----------6-

G
----9---------------------9-----------------9-----------------9----------9-

D
0/7---0-8-7p0-5p0-3h5-0/7---0-8-7p0-5p0-0/7---0-8-7p0-3h5-0/7---0-8-7p0-5--

A
0/7---0-8-7p0-5p0-3h5-0/7---0-8-7p0-5p0-0/7---0-8-7p0-3h5-0/7---0-8-7p0-5--

D
0/7---0-8-7p0-5p0-3h5-0/7---0-8-7p0-5p0-0/7---0-8-7p0-3h5-0/7---0-8-7p0-5--


e
----0---------------------0-----------------0-----------------0----------0-

B
----6---------------------6-----------------6-----------------6----------6-

G
----9---------------------9-----------------9-----------------9----------9-

D
0/7---0-8-7p0-5p0-3h5-0/7---0-8-7p0-5p0-0/7---0-8-7p0-3h5-0/7---0-8-7p0-5--

A
0/7---0-8-7p0-5p0-3h5-0/7---0-8-7p0-5p0-0/7---0-8-7p0-3h5-0/7---0-8-7p0-5--

D
0/7---0-8-7p0-5p0-3h5-0/7---0-8-7p0-5p0-0/7---0-8-7p0-3h5-0/7---0-8-7p0-5--


0:58 - 1:19

Figure out the strumming yourself

e
-0-0--0-0-0-0-0--0-0--0-0-0-0-0-----------------------------------

B
-4-4--4-4-4-4-4--4-4--4-4-4-4-4-----------------------------------

G
-7-7--7-7-7-7-7--7-7--7-7-7-7-7-----------------------------------
x A lot
D
------------------------------------------------------------------

A
------------------------------------------------------------------

D
------------------------------------------------------------------


1:20 - 1:29

e
---------------------------------------------------------------------------

B
---------------------------------------------------------------------------

G
---------------------------------------------------------------------------

D
-0~-0~-8~-5~--0~-0~-8~-5~--------------------------------------------------

A
-0~-0~-8~-5~--0~-0~-8~-5~--------------------------------------------------

D
-0~-0~-8~-5~--0~-0~-8~-5~--------------------------------------------------


1:30 - 1:40

e
-------------------------------------------------------------------

B
-------------------------------------------------------------------

G
-------------------------------------------------------------------

D
-0-0--0-0-0-0--0-0-0-0--0-0-0-0--0-0-------------------------------

A
-0-0--0-0-0-0--0-0-0-0--0-0-0-0--0-0-------------------------------

D
-0-0--0-0-0-0--0-0-0-0--0-0-0-0--0-0-------------------------------


e
------------------------------------------------------------------------

B
------------------------------------------------------------------------

G
------------------------------------------------------------------------

D
-0-0--0-0-0-0--0-0-0-0--0-0-0-0-12/0------------------------------------

A
-0-0--0-0-0-0--0-0-0-0--0-0-0-0-12/0------------------------------------

D
-0-0--0-0-0-0--0-0-0-0--0-0-0-0-12/0------------------------------------


1:41 - 1:52

e
-------------------------------------------------------------------

B
-------------------------------------------------------------------

G
-------------------------------------------------------------------

D
-0-0--0-0-0-0--0-0-0-0--0-0-0-0--0-0-------------------------------
x2
A
-0-0--0-0-0-0--0-0-0-0--0-0-0-0--0-0-------------------------------

D
-0-0--0-0-0-0--0-0-0-0--0-0-0-0--0-0-------------------------------

pm . .  . . . .  . . . .  . . . .  . .

1:53 - 2:05

e
-0-0--0-0~--0-0--0-0~--0-0--0-0~--0-0--0-0~----------------------

B
-6-6--6-6~--6-6--6-6~--6-6--6-6~--6-6--6-6~----------------------

G
-9-9--9-9~--9-9--9-9~--9-9--9-9~--9-9--9-9~----------------------

D
-0-0--0-0~--0-0--0-0~--0-0--0-0~--0-0--0-0~----------------------

A
-0-0--0-0~--0-0--0-0~--0-0--0-0~--0-0--0-0~----------------------

D
-0-0--0-0~--0-0--0-0~--0-0--0-0~--0-0--0-0~----------------------


2:06 - 2:46

e
----------------------------------------0-----------------------------

B
----------------------------------------6-----------------------------

G
----------------------------------------9-----------------------------

D
-0~--8~--0~--8~--0~--8~--0~--8~-0-0-0-0---8---------------------------

A
-0~--8~--0~--8~--0~--8~--0~--8~-0-0-0-0---8---------------------------

D
-0~--8~--0~--8~--0~--8~--0~--8~-0-0-0-0---8---------------------------

pm                                . . . .

e
--------------------------------------------------------------------------

B
--------------------------------------------------------------------------

G
--------------------------------------------------------------------------

D
-0~--8~--0~--8~-x-x-x-x-x-x--0~--8~--0~--8~-------------------------------

A
-0~--8~--0~--8~-x-x-x-x-x-x--0~--8~--0~--8~-------------------------------

D
-0~--8~--0~--8~-x-x-x-x-x-x--0~--8~--0~--8~-------------------------------


2:47 - 2:56

e
-------------------------------0--------------------------------------

B
-------------------------------6--------------------------------------

G
-------------------------------9--------------------------------------

D
-7p0-5-3-7p0-5-3-7p0-5-3-7p0-5----------------------------------------

A
-7p0-5-7-7p0-5-7-7p0-5-7-7p0-5----------------------------------------

D
-7p0-5---7p0-5---7p0-5---7p0-5----------------------------------------


e
-------------------------------0--------------------------------------

B
-------------------------------6--------------------------------------

G
-------------------------------9--------------------------------------

D
-7p0-5-3-7p0-5-3-7p0-5-3-7p0-5----------------------------------------

A
-7p0-5-7-7p0-5-7-7p0-5-7-7p0-5----------------------------------------

D
-7p0-5---7p0-5---7p0-5---7p0-5----------------------------------------


                   -------------------------------------
                          To Whom It May Concern
                   -------------------------------------


GUITAR 1  0:00-0:24
E-------------------------------------------------------------8-------------

B-----------------------10------8-----------------------10------------------

G----9^~---9~---5~--------7-5----7-5----9^~---9~---5~-----7-5---7-5---------

D---------------------------------------------------------------------------

A---------------------------------------------------------------------------

E---------------------------------------------------------------------------


0:25-0:49
E---------8-----5------------8-5-----------

B----------6-----6------------8------------

G---9^~-----7-----7----9~---------7-5------
  (x2)
D-------------------------------------7----

A------------------------------------------

E------------------------------------------


0:50-1:13    This part I know isnít right but its kinda hard to hear in the song..
E----------------------------------------------------

B-------------8~-8~-----8~---------------------------

G---9~-10~---------9~------10~-10~--9~---------------
 x2
D----------------------------------------------------

A----------------------------------------------------

E----------------------------------------------------


1:14-1:39      hard to hear again, since aaron starts to sing..
E-------------------------------------8----5---8~-------------------------8-----

B---10-10-10-10-8-8-8-8----------------------6----6~-----------------------6----

G-----------------------7-5-7~---7--5---5-------------9~----7-9-7~---9-9----9---

D-------------------------------------------------------------------------------

A-------------------------------------------------------------------------------

E-------------------------------------------------------------------------------

  ^those are 10ís NOT 1ís and 0ís

1:40-2:04   still hard to hear, since aaron is still singingÖ
E---5---8~----------------------------8~-------------------------------------

B-----6-----6~----------6~--6~---10-6-----6--------6-----7---5----5/10-5/10--

G--------------9~---7-5---------------------9~-7-5------5---7-----7/12-7/12--

D----------------------------------------------------------------------------

A----------------------------------------------------------------------------

E----------------------------------------------------------------------------


Sorry guys, but I cant hear what the guitar part is from 2:05-2:30...

2:31-2:48
E---------------------------------------------------------------------

B--------------------------------8-8-8-8-11--11-11-11-11-11-11--------

G----10-10-10-1010-10-1010101010--------------------------------------

D---------------------------------------------------------------------
x3
A---------------------------------------------------------------------

E---------------------------------------------------------------------

^10ís, NOT 1ís and 0ís                         11ís, not 1ís

2:48-2:53
E--------------------------------------

B--------------------------------------

Gó10-10-10-1010-10-10101010\9~---------

D--------------------------------------

A--------------------------------------

E--------------------------------------



2:54-  when spencer comes onÖ
E
----------------------------

B
----------------------------

G
----------------------------

D
-7/3-0~7/3-0~7/3-0~7/3-0----

A
-7/3-0~7/3-0~7/3-0~7/3-0----

D
-7/3-0~7/3-0~7/3-0~7/3-0----


E
-----------------------------

B
-----------------------------

G
-----------------------------

D
-0-0-0~0-0-0~0-0-0~0-0-0~----

A
-0-0-0~0-0-0~0-0-0~0-0-0~----

D
-0-0-0~0-0-0~0-0-0~0-0-0~----

pm . .   . .   . .   . .

All downpicking,
E
---------------------------------

B
---------------------------------

G
---------------------------------

D
-7777777-5555-333-2-2-0-0-0~-----
 x2
A
-7777777-5555-333-2-2-0-0-0~-----

D
-7777777-5555-333-2-2-0-0-0~-----

pm                      . .

a little fasterÖ
E
-----------------------------------------------

B
-----------------------------------------------

G
-----------------------------------------------

D
-7----------5-------3333-222-0-----------------

A
-7-(X12)----5-x7----3333-222-0-x20(lots)-------

D
-7----------5-------3333-222-0-----------------



E
----------------------------------------

B
----------------------------------------

G
----------------------------------------

D
-7-----------5------3333-222-0~---------

A
-7-(X12)-----5-x7---3333-222-0~---------

D
-7-----------5------3333-222-0~---------




THATS IT! 
comment and rate if you feel the need. email me if you want salmarnir and ill do my best to tab it out!









 


/
How To Set Up Higher Praise As Your Home Page
Copyright 1999, Higher Praise HigherPraise,Inc. All rights reserved. Terms of Use

Enjoy A Life Changing Experience

 
 
 
HigherPraise, Higher Praise, HigherPraise, Higher Praise, HigherPraise

Members..Sign Up. LogIn

 
 

Higher Praise Other Sites
 
 

HigherPraise.org/
Praise And Worship
www.higherpraise.org

HigherPraise.net
Christian Resources
www.higherpraise.net

HigherPraiseTube.com
Videos And Audios
www.higherpraisetube.com.


ChristianLyrics.org

Lyrics And Chrords
www.christianlyrics.org

ChristianChordsLyrics

Lyrics And Chrords
www.christianchordslyrics.com

ChristianChordLyrics

Lyrics And Chrords
www.christianchordlyrics.com

WorshipLyrics.org
10.000 Illustrations
www.worshiplyrics.org

WorshipLyrics.net
10.000 Illustrations
www.worshiplyrics.net

PraiseLyrics.com
PowerPoint Lyrics

www.praiselyrics.com

PraiseLyrics.org
PowerPoint Lyrics

www.praiselyrics.org

1GodTube.com
Chistian Videos

www1godtube..com

OneGodTube.com
Chistian Videos

www.onegodtube..com

 

/
© Copyright 1999 - 2019, Higher Praise™ HigherPraise™,Inc. All rights reserved. Terms of Use