Higher Praise - Guitar Chords, Lyrics  GuitarTabs -  Praise nad Worship Music And Christian Songs

Higher Praise - Guitar Tabs, Guitar Chords, Lyrics
   Lyrics, Chords And Tabs
   Popular Lyrics Chords Tab
   Power Point Lyrics
   Praise & Worship Music
   Christian Music Videos
   15900 Videos & Audios
   Midi Files
   Worship Questions
   Christmas Chords, Lyrics
   Lyrics, Chords Tabs Rated

Sermon Outlines And Audio Sermons
   9344 Sermon Outlines
   N.T. Sermon Outlines
   O.T. Sermon Outlines
   Special Guest Outlines
   10.000 Illustrations
   Sunday School Studies
   Bible College Studies
   Greatest Preachers
   Bible Research Tools
Audio Sermons
   2895 Audio Sermons
   85 Sermon Videos
   291 Special Guests Serm

   Complete Audio Bible
Higher Praise Sunday School Teaching
   Children's NT Studies
   Children's OT Studies

   98 Children's Midis
   Gospel For Kids Movie
   Children's JESUS Film
Higher Praise Christian Video Library ,Videos
   Christian Television
   TBN TV Live
   15,000 Videos - HP Tube
   712 Youth Music Vids
  Christian Video Library
   Praise Videos #1 & #2
   85 Sermon Videos
   Prophecy Film -Videos
   JESUS Film -Video
   Childrens JESUS Film
   Gospel For Kids Movie
   Passion Of The Christ
   Noah, Sodom, Sinai, Ark
   Tsunami Videos Photos
News And Information
   Testimonies
   Submit Lyrics, Tabs, Serm
   10.000 Illustrations
   Bible College Course
   Clipart & Web Graphics
   Greatest Preachers
   Complete Talking Bible
   Christian Chat Rooms
   Links Church Resource
   HP Statement Of Faith
Download Clipart
   Audio Sermons
   Clipart & Web Graphics
   Church Administration
   Bible Study Software
   Screen Savers Software
   Verse A Day Software
   Educational Games
   Trade Center Photos

   Soft. Search Engine
Higher Praise News
   Current News
    Archived News
   Submit News
   Newsletter   Higher Praise Interact Prayer
   Prayer For All Needs
   
Submit Lyrics, Sermons
   
Contact Higher Praise
   
Advertising 
   Privacy Policy
//
He Died For You,  Click For Answer! This Is Who Jesus Is Video

'
 
0-9 A B C D E F G H I J K L M N O P Q R S T U V W X Y Z
.

//
Click For Printable...Version Of This File
 

Desperate Times Desperate Measures


by Underoath




CRIES OF THE PAST
As recorded by Underoath
(From the 2000 Album CRIES OF THE PAST)

Transcribed by Cordarro Collins
	

Words and Music by Underoath
Arranged by Underoath

Gtr I (D A D G B E) - 'Untitled'
Gtr II (D A D G B E) - 'Untitled'
Gtr III (D A D G B E) - 'Untitled'
Gtr IV (D A D G B E) - 'Untitled'
Gtr V (D A D G B E) - 'Untitled'

 Intro
  Q=85
  N.C.
 4/4
  Gtr III
  Wx4           Q   Q   Q   Q     Q   Q   Q   Q

------------
-12--11--19--18--
-12--11--19--18--

------------
-----------------
-----------------

------------
-----------------
-----------------

------------
-----------------
-----------------

------------
-----------------
-----------------

------------
-----------------
-----------------



   Q   Q   Q   Q     Q    Q   Q   Q     Q   Q   Q   Q     Q    Q   Q   Q

-12--11--19--18--
-12---11--19--18--
-12--11--19--18--
-12---11--19--18--

-----------------
------------------
-----------------
------------------

-----------------
------------------
-----------------
------------------

--7--------------
-(7)--------------
--3--------------
-(3)--------------

-----------------
------------------
-----------------
------------------

-----------------
------------------
-----------------
------------------

   W                +W                  W                +W


   Q   Q   Q   Q     Q    Q   Q   Q     Q   Q   Q   Q     Q    Q   Q   Q

-12--11--19--18--
-12---11--19--18--
-12--11--19--18--
-12---11--19--18--

-----------------
------------------
-----------------
------------------

-----------------
------------------
-----------------
------------------

--7--------------
-(7)--------------
--3--------------
-(3)--------------

-----------------
------------------
-----------------
------------------

-----------------
------------------
-----------------
------------------

   W                +W                  W                +W


  Q=154
  N.C.(E5/A)
  Gtr V
   E E E E E E E E     E  E E E E E E E

------------------
--------------------

------------------
--------------------

------------------
--------------------

----------9-----9-
------------9-----9-

------7-----7-----
--------7-----7-----

--7-7---7-----7---
---7--7---7-----7---



 Gtr III

  W                  +W

-17---------------
-(17)---------------

------------------
--------------------

------------------
--------------------

------------------
--------------------

------------------
--------------------

------------------
--------------------



    E  E E E E E E E     E  E E E E E  Q

--------------------
---------------------

--------------------
---------------------

--------------------
---------------------

------------9-----9-
------------9--------

--------7-----7-----
--------7-----7-10\--

---7--7---7-----7---
---7--7---7----------



  +W                   +W

-(17)---------------
-(17)----------------

--------------------
---------------------

--------------------
---------------------

--------------------
---------------------

--------------------
---------------------

--------------------
---------------------



  N.C.(C5/F)
   E E E E E E E E     E  E E E E E E E

------------------
--------------------

------------------
--------------------

------------------
--------------------

----------5-----5-
------------5-----5-

------3-----3-----
--------3-----3-----

--3-3---3-----3---
---3--3---3-----3---



  W                  +W

-13---------------
-(13)---------------

------------------
--------------------

------------------
--------------------

------------------
--------------------

------------------
--------------------

------------------
--------------------



    E  E E E E E E E     E  E E E E E Q

--------------------
--------------------

--------------------
--------------------

--------------------
--------------------

------------5-----5-
------------5-------

--------3-----3-----
--------3-------3\--

---3--3---3-----3---
---3--3---3---3-----



  +W                   +W

-(13)---------------
-(13)---------------

--------------------
--------------------

--------------------
--------------------

--------------------
--------------------

--------------------
--------------------

--------------------
--------------------



    N.C.(E5/A)
     E E E E E E E E     E  E E E E E E E

-------------------
--------------------


o------------------
--------------------


-------------------
--------------------


-----------9-----9-
------------9-----9-


o------7-----7-----
--------7-----7-----


---7-7---7-----7---
---7--7---7-----7---



    W                  +W

--17---------------
-(17)---------------


o------------------
--------------------


-------------------
--------------------


-------------------
--------------------


o------------------
--------------------


-------------------
--------------------



    E  E E E E E E E     E  E E E E E E E

--------------------
----------------------

--------------------
----------------------

--------------------
----------------------

------------9-----9-
------------9-----9\--

--------7-----7-----
--------7-----7-------

---7--7---7-----7---
---7--7---7-----7-----



  +W                   +W

-(17)---------------
-(17)-----------------

--------------------
----------------------

--------------------
----------------------

--------------------
----------------------

--------------------
----------------------

--------------------
----------------------



  N.C.(C5/F)
   E E E E E E E E     E  E E E E E E E

------------------
--------------------

------------------
--------------------

------------------
--------------------

----------5-----5-
------------5-----5-

------3-----3-----
--------3-----3-----

--3-3---3-----3---
---3--3---3-----3---



  W                  +W

-13---------------
-(13)---------------

------------------
--------------------

------------------
--------------------

------------------
--------------------

------------------
--------------------

------------------
--------------------



    E  E E E E E E E     E  E E E E E E E

--------------------
----------------------


--------------------
---------------------o


--------------------
----------------------


------------5-----5-
------------5-----5\--


--------3-----3-----
--------3-----3------o


---3--3---3-----3---
---3--3---3-----3-----



  +W                   +W

-(13)---------------
-(13)-----------------


--------------------
---------------------o


--------------------
----------------------


--------------------
----------------------


--------------------
---------------------o


--------------------
----------------------



  N.C.(E5/A)
   E E E E E E E E     E  E E E E E E E

------------------
--------------------

------------------
--------------------

------------------
--------------------

----------9-----9-
------------9-----9-

------7-----7-----
--------7-----7-----

--7-7---7-----7---
---7--7---7-----7---



  W                  +W

-17---------------
-(17)---------------

------------------
--------------------

------------------
--------------------

------------------
--------------------

------------------
--------------------

------------------
--------------------



    E  E E E E E E E     E  E E E E E E E

--------------------
---------------------

--------------------
---------------------

--------------------
---------------------

------------9-----9-
------------9-----9\-

--------7-----7-----
--------7-----7------

---7--7---7-----7---
---7--7---7-----7----



  +W                   +W

-(17)---------------
-(17)----------------

--------------------
---------------------

--------------------
---------------------

--------------------
---------------------

--------------------
---------------------

--------------------
---------------------



  N.C.
  >
  W          +W           W          W

----------
------------
----------
------

----------
------------
----------
------

----------
------------
----------
------

----------
------------
----------
------

----------
------------
----------
------

-3--------
-(3)--------
----------
------



 W           W           W          W

----------
------------
----------
------

----------
------------
----------
------

----------
------------
----------
------

----------
------------
----------
------

----------
------------
----------
------

----------
------------
----------
------



   Verse
    A5                         C5
    Gtr I
     E  E  H.                   E  E  H.

---------------------------
--------------------------


o--------------------------
--------------------------


---------------------------
--------------------------


---7--7--------------------
-10-10--------------------


o--7--7--------------------
-10-10--------------------


---7--7--------------------
-10-10--------------------



   Gtr II

    E  E  H.                   E  E  H.

---------------------------
--------------------------


o--------------------------
--------------------------


---------------------------
--------------------------


---7--7--------------------
-10-10--------------------


o--7--7--------------------
-10-10--------------------


---7--7--------------------
-10-10--------------------



   Gtr III

    E  E  E   E  E  E  E  E    E  E  E   E  E  E  E  E

--12-11-19--18-12-11-19-18-
-12-11-19--18-12-11-19-18-


o--------------------------
--------------------------


---------------------------
--------------------------


---------------------------
--------------------------


o--------------------------
--------------------------


---------------------------
--------------------------



  F5                   D5
   E  E  H           E  E     Q.        E   H

-------------------------
-------------------------------


-------------------------
------------------------------o


-------------------------
-------------------------------


--3--3-----------------0-
-/12\--------0-/12\------------


--3--3-----------------0-
-/12\--------0-/12\-----------o


--3--3-----------------0-
-/12\--------0-/12\------------



  E  E  H           E  E     Q.        E   H

-------------------------
-------------------------------


-------------------------
------------------------------o


-------------------------
-------------------------------


--3--3-----------------0-
-/12\--------0-/12\------------


--3--3-----------------0-
-/12\--------0-/12\-----------o


--3--3-----------------0-
-/12\--------0-/12\------------



  E  E  E  E  E  E  E  E     E   E  E  E   E   E  E  E

-12-11-19-18-12-11-19-18-
--12--11-19-18--12--11-19-18---


-------------------------
------------------------------o


-------------------------
-------------------------------


-------------------------
-------------------------------


-------------------------
------------------------------o


-------------------------
-------------------------------



  A5             C5              F5
  Gtrs I, II
   E E H.         E  E H.         E E H.          W

--------------
---------------
--------------
---------

--------------
---------------
--------------
---------

--------------
---------------
--------------
---------

--7-7---------
-10-10---------
--3-3---------
---------

--7-7---------
-10-10---------
--3-3---------
---------

--7-7---------
-10-10---------
--3-3---------
---------



 Gtr III

  W              W               W              +W

-17-----------
-20------------
-13-----------
-(13)----

--------------
---------------
--------------
---------

--------------
---------------
--------------
---------

--------------
---------------
--------------
---------

-12-----------
-15------------
--8-----------
--(8)----

--------------
---------------
--------------
---------



  A5             C5              F5      D5
   E E H.         E  E H.         E E Q    H         H       H

--------------
---------------
-----------------
-----------------

--------------
---------------
-----------------
-----------------

--------------
---------------
-----------------
-----------------

--7-7---------
-10-10---------
--3-3----/12\----
-/12\----/15\----

--7-7---------
-10-10---------
--3-3----/12\----
-/12\----/15\----

--7-7---------
-10-10---------
--3-3----/12\----
-/12\----/15\----



  W              W               W                  H       H

-17-----------
-20------------
-13--------------
--24------20-----

--------------
---------------
-----------------
-----------------

--------------
---------------
-----------------
-----------------

--------------
---------------
-----------------
-----------------

-12-----------
-15------------
--8--------------
--19------15-----

--------------
---------------
-----------------
-----------------



  Q=144
  A5                                F5
  Gtr I
   Q  E E Q  E E    Q  E E Q  E E    Q  E E Q  E E    Q  E E  Q  E E

----------------
----------------
----------------
-----------------

----------------
----------------
----------------
-----------------

----------------
----------------
----------------
-----------------

--7--7-7-7--7-7-
--7--7-7-7--7-7-
--3--3-3-3--3-3-
--3--3-3--3--3-3-

--7--7-7-7--7-7-
--7--7-7-7--7-7-
--3--3-3-3--3-3-
--3--3-3--3--3-3-

--7--7-7-7--7-7-
--7--7-7-7--7-7-
--3--3-3-3--3-3-
--3--3-3--3--3-3-



 Gtr II

  Q  E E Q  E E    Q  E E Q  E E    Q  E E Q  E E    Q  E E  Q  E E

----------------
----------------
----------------
-----------------

----------------
----------------
----------------
-----------------

----------------
----------------
----------------
-----------------

--9--9-9-9--9-9-
--9--9-9-9--9-9-
--5--5-5-5--5-5-
--5--5-5--5--5-5-

--7--7-7-7--7-7-
--7--7-7-7--7-7-
--3--3-3-3--3-3-
--3--3-3--3--3-3-

--7--7-7-7--7-7-
--7--7-7-7--7-7-
--3--3-3-3--3-3-
--3--3-3--3--3-3-



 Gtr III

  W                W                W                H       H

-17-------------
-20-------------
-13-------------
-24------20------

----------------
----------------
----------------
-----------------

----------------
----------------
----------------
-----------------

----------------
----------------
----------------
-----------------

-12-------------
-15-------------
--8-------------
-19------15------

----------------
----------------
----------------
-----------------



    A5               C5
                      PM------------------------------

                      
--3--
  
--3--
  
--3--
  
--3--

     Q  E E Q  E E    E  E  E  E  E  E  E  E  E  E  E  E

-----------------
-------------------------------------


o----------------
-------------------------------------


-----------------
-------------------------------------


---7--7-7-7--7-7-
-------------------------------------


o--7--7-7-7--7-7-
-10-10-10-10-10-10-10-10-10-10-10-10-


---7--7-7-7--7-7-
-10-10-10-10-10-10-10-10-10-10-10-10-



                     PM------------------------------

                     
--3--
  
--3--
  
--3--
  
--3--

    Q  E E Q  E E    E  E  E  E  E  E  E  E  E  E  E  E

-----------------
-------------------------------------


o----------------
-------------------------------------


-----------------
-------------------10p=9p=7----------


---9--9-9-9--9-9-
--7h=9h10-10p=9p=7----------10p=9p=7-


o--7--7-7-7--7-7-
-------------------------------------


---7--7-7-7--7-7-
-------------------------------------



    W                W

--17-------------
-20----------------------------------


o----------------
-------------------------------------


-----------------
-------------------------------------


-----------------
-------------------------------------


o-12-------------
-15----------------------------------


-----------------
-------------------------------------



  F5
   Q  E E Q  E E    Q  E E  Q  E E   3x

----------------
-------------------


----------------
------------------o


----------------
-------------------


--3--3-3-3--3-3-
--3--3-3--3--3-3---


--3--3-3-3--3-3-
--3--3-3--3--3-3--o


--3--3-3-3--3-3-
--3--3-3--3--3-3---



  Q  E E Q  E E    Q  E E  Q  E E   3x

----------------
-------------------


----------------
------------------o


----------------
-------------------


--5--5-5-5--5-5-
--5--5-5--5--5-5---


--3--3-3-3--3-3-
--3--3-3--3--3-3--o


--3--3-3-3--3-3-
--3--3-3--3--3-3---



  W                H       H        3x

-13-------------
-24------20--------


----------------
------------------o


----------------
-------------------


----------------
-------------------


--8-------------
-19------15-------o


----------------
-------------------



 Bridge
  Q=219
  D5                    Bb5 C5   Eb5/Ab  D5                    Bb5 C5   Eb5/Ab
  Gtr II
  PM----
   PM----
                      PM----
   PM----

  
-3-
     
-3-
                        
-3-
     
-3-

  E E E E E E E E E E    Q    Q   H      E E E E E E E E E E    Q    Q   H

---------------------
----------------
---------------------
----------------

---------------------
----------------
---------------------
----------------

---------------------
----------------
---------------------
----------------

---------------------
-/8--/10--\8----
---------------------
-/8--/10--\8----

-0-0-0-0---0-0-0-0---
-/8--/10--\6----
-0-0-0-0---0-0-0-0---
-/8--/10--\6----

-0-0-0-0---0-0-0-0---
-/8--/10--\6----
-0-0-0-0---0-0-0-0---
-/8--/10--\6----



    D5                    Bb5 C5   Eb5/Ab
    Gtrs I, II
    PM----
   PM----

    
-3-
     
-3-

    E E E E E E E E E E    Q    Q   H

----------------------
----------------


o---------------------
----------------


----------------------
----------------


----------------------
-/8--/10--\8----


o-0-0-0-0---0-0-0-0---
-/8--/10--\6----


--0-0-0-0---0-0-0-0---
-/8--/10--\6----



  D5                    Bb5 C5   Eb5/Ab
  PM----
   PM----

  
-3-
     
-3-

  E E E E E E E E E E    Q    Q   H

---------------------
-----------------


---------------------
----------------o


---------------------
-----------------


---------------------
-/8--/10--\8-----


-0-0-0-0---0-0-0-0---
-/8--/10--\6----o


-0-0-0-0---0-0-0-0---
-/8--/10--\6-----



 Strings Interlude
  Q=98
  D5
  Gtrs I, II
  >
  W          +W                +W           +W                 W

----------
----------------
-------------
----------------
---------

----------
----------------
-------------
----------------
---------

----------
----------------
-------------
----------------
---------

-0--------
-(0)------------
--(0)--------
-(0)------------
---------

-0--------
-(0)------------
--(0)--------
-(0)------------
---------

-0--------
-(0)------------
--(0)--------
-(0)------------
---------



 Gtr III

 W           H       H         W            H       H         W

----------
-20------19-----
--17---------
-20------19-----
--17-----

----------
----------------
-------------
----------------
---------

----------
----------------
-------------
----------------
---------

----------
----------------
-------------
----------------
---------

----------
----------------
-------------
----------------
---------

----------
-10-----(10)----
-(10)--------
-14-----(14)----
-(14)----



  C                             E
  Gtr III
                                                          
----3----

   H      H         W            H      H         H       Q    Q    Q

-20-----19-----
--17---------
-20-----19-----
--17------27---24---22---

---------------
-------------
---------------
-------------------------

---------------
-------------
---------------
-------------------------

---------------
-------------
---------------
-------------------------

---------------
-------------
---------------
-------------------------

-10----(10)----
-(10)--------
-14----(14)----
-(14)----(14)-(14)-(14)--



   Interlude
    Q=219
    C5
    Gtr I
     PM------
     PM------
        PM-------
     PM------

     
--3--
       
--3--
          
--3---
       
--3--

     E  E  E  E E  E  E  E  E E     E   E  E  E E  E  E  E  E E

------------------------------
-------------------------------


o-----------------------------
-------------------------------


------------------------------
-------------------------------


------------------------------
-------------------------------


o-10-10-10-10---10-10-10-10---
--10--10-10-10---10-10-10-10---


--10-10-10-10---10-10-10-10---
--10--10-10-10---10-10-10-10---



   Gtr II

    PM------
     PM------
        PM-------
     PM------

    
--3--
       
--3--
          
--3---
       
--3--

    E  E  E  E E  E  E  E  E E     E   E  E  E E  E  E  E  E E

------------------------------
-------------------------------


o-----------------------------
-------------------------------


------------------------------
-------------------------------


------------------------------
-------------------------------


o-10-10-10-10---10-10-10-10---
--10--10-10-10---10-10-10-10---


--10-10-10-10---10-10-10-10---
--10--10-10-10---10-10-10-10---



   Gtr III

    W                              W

--20--------------------------
--19---------------------------


o-----------------------------
-------------------------------


------------------------------
-------------------------------


------------------------------
-------------------------------


o-----------------------------
-------------------------------


--10--------------------------
-(10)--------------------------



    PM-------
     PM------
        PM-------
     PM------

    
--3---
       
--3--
          
--3---
       
--3--

    E   E  E  E E  E  E  E  E E     E   E  E  E E  E  E  E  E E

-------------------------------
-------------------------------

-------------------------------
-------------------------------

-------------------------------
-------------------------------

-------------------------------
-------------------------------

--10--10-10-10---10-10-10-10---
--10--10-10-10---10-10-10-10---

--10--10-10-10---10-10-10-10---
--10--10-10-10---10-10-10-10---



   PM-------
     PM------
        PM-------
     PM------

   
--3---
       
--3--
          
--3---
       
--3--

   E   E  E  E E  E  E  E  E E     E   E  E  E E  E  E  E  E E

-------------------------------
-------------------------------

-------------------------------
-------------------------------

-------------------------------
-------------------------------

-------------------------------
-------------------------------

--10--10-10-10---10-10-10-10---
--10--10-10-10---10-10-10-10---

--10--10-10-10---10-10-10-10---
--10--10-10-10---10-10-10-10---



   W                              +W

--17---------------------------
-(17)--------------------------

-------------------------------
-------------------------------

-------------------------------
-------------------------------

-------------------------------
-------------------------------

-------------------------------
-------------------------------

-(10)--------------------------
-(10)--------------------------



  E5
   PM------
     PM------
        PM-------
     PM------

   
--3--
       
--3--
          
--3---
       
--3--

   E  E  E  E E  E  E  E  E E     E   E  E  E E  E  E  E  E E

-----------------------------
-------------------------------

-----------------------------
-------------------------------

-----------------------------
-------------------------------

-----------------------------
-------------------------------

-14-14-14-14---14-14-14-14---
--14--14-14-14---14-14-14-14---

-14-14-14-14---14-14-14-14---
--14--14-14-14---14-14-14-14---



  PM------
     PM------
        PM-------
     PM------

  
--3--
       
--3--
          
--3---
       
--3--

  E  E  E  E E  E  E  E  E E     E   E  E  E E  E  E  E  E E

-----------------------------
-------------------------------

-----------------------------
-------------------------------

-----------------------------
-------------------------------

-----------------------------
-------------------------------

-14-14-14-14---14-14-14-14---
--14--14-14-14---14-14-14-14---

-14-14-14-14---14-14-14-14---
--14--14-14-14---14-14-14-14---



  W                              W

-20--------------------------
--19---------------------------

-----------------------------
-------------------------------

-----------------------------
-------------------------------

-----------------------------
-------------------------------

-----------------------------
-------------------------------

-14--------------------------
-(14)--------------------------



    PM-------
     PM------
        PM-------
          PM--------

    
--3---
       
--3--
          
--3---
            
--3---

    E   E  E  E E  E  E  E  E E     E   E  E  E      E  E  E   E   E E

-------------------------------
---------------------------------------


-------------------------------
--------------------------------------o


-------------------------------
---------------------------------------


-------------------------------
---------------------------------------


--14--14-14-14---14-14-14-14---
--14--14-14-14--------14-14--14--14---o


--14--14-14-14---14-14-14-14---
--14--14-14-14--------14-14--14--14----



   PM-------
     PM------
        TP            TP           TP

   
--3---
       
--3--
          
------------3-------------

   E   E  E  E E  E  E  E  E E     H             H            H

-------------------------------
---------------------------------------


-------------------------------
--------------------------------------o


-------------------------------
---------------------------------------


-------------------------------
--10-------------9------------7--------


--14--14-14-14---14-14-14-14---
--------------------------------------o


--14--14-14-14---14-14-14-14---
---------------------------------------



                                   
------------3-------------

   W                               H             H            H

--17---------------------------
--27------------24-----------22--------


-------------------------------
--------------------------------------o


-------------------------------
---------------------------------------


-------------------------------
---------------------------------------


-------------------------------
--------------------------------------o


-(14)--------------------------
-(14)----------(14)---------(14)-------



 Verse
  Q=176
  C5
   TP           TP            TP            TP
   W            W             W             W

-----------
-------------
-------------
-------------------

-----------
-------------
-------------
-------------------

-----------
-------------
-------------
-------------------

-10--------
--10---------
--10---------
--10---------------

-10--------
--10---------
--10---------
--10---------------

-10--------
--10---------
--10---------
--10---------------



  TP           TP            TP            TP   TP  TP  TP

  W            W             W             Q    Q   Q   Q

-----------
-------------
-------------
-------------------

-----------
-------------
-------------
-------------------

-----------
-------------
-------------
-------------------

-10--------
--10---------
--10---------
-------------------

-10--------
--10---------
--10---------
---9---10--12--10--

-10--------
--10---------
--10---------
-------------------



  W           +W            +W            +W

-20--------
-(20)--------
-(20)--------
-(20)--------------

-----------
-------------
-------------
-------------------

-----------
-------------
-------------
-------------------

-----------
-------------
-------------
-------------------

-----------
-------------
-------------
-------------------

-10--------
-(10)--------
-(10)--------
-(10)--------------



  E5
   TP           TP            TP            TP
   W            W             W             W

-----------
-------------
-------------
---------

-----------
-------------
-------------
---------

-----------
-------------
-------------
---------

-14--------
--14---------
--14---------
--14-----

-14--------
--14---------
--14---------
--14-----

-14--------
--14---------
--14---------
--14-----



  TP           TP            TP            TP

  W            W             W             W

-----------
-------------
-------------
---------

-----------
-------------
-------------
---------

-----------
-------------
-------------
---------

--2--------
-------------
---2---------
---------

-----------
-------------
-------------
---------

-----------
---2---------
-------------
---2-----



  W           +W            +W            +W

-17--------
-(17)--------
-(17)--------
-(17)----

-----------
-------------
-------------
---------

-----------
-------------
-------------
---------

-----------
-------------
-------------
---------

-----------
-------------
-------------
---------

-14--------
-(14)--------
-(14)--------
-(14)----



  C5
   TP           TP            TP            TP
   W            W             W             W

-----------
-------------
-------------
-------------------

-----------
-------------
-------------
-------------------

-----------
-------------
-------------
-------------------

-10--------
--10---------
--10---------
--10---------------

-10--------
--10---------
--10---------
--10---------------

-10--------
--10---------
--10---------
--10---------------



  TP           TP            TP            TP   TP  TP  TP

  W            W             W             Q    Q   Q   Q

-----------
-------------
-------------
-------------------

-----------
-------------
-------------
-------------------

-----------
-------------
-------------
-------------------

-10--------
--10---------
--10---------
-------------------

-10--------
--10---------
--10---------
---9---10--12--10--

-10--------
--10---------
--10---------
-------------------



  W           +W            +W            +W

-20--------
-(20)--------
-(20)--------
-(20)--------------

-----------
-------------
-------------
-------------------

-----------
-------------
-------------
-------------------

-----------
-------------
-------------
-------------------

-----------
-------------
-------------
-------------------

-10--------
-(10)--------
-(10)--------
-(10)--------------



  E5
   TP           TP            TP            TP
   W            W             W             W

-----------
-------------
-------------
---------------------

-----------
-------------
-------------
---------------------

-----------
-------------
-------------
---------------------

-14--------
--14---------
--14---------
--14-----------------

-14--------
--14---------
--14---------
--14-----------------

-14--------
--14---------
--14---------
--14-----------------



  TP           TP            TP            TP

  W            W             W             W

-----------
-------------
-------------
---------------------

-----------
-------------
-------------
---------------------

-----------
-------------
-------------
---------------------

--2--------
-------------
---2---------
---------------------

-----------
-------------
-------------
---------------------

-----------
---2---------
-------------
---2-----------------



  W           +W            +W            +H       Q     Q

-17--------
-(17)--------
-(17)--------
-(17)-----24----22---

-----------
-------------
-------------
---------------------

-----------
-------------
-------------
---------------------

-----------
-------------
-------------
---------------------

-----------
-------------
-------------
---------------------

-14--------
-(14)--------
-(14)--------
-(14)----(14)--(14)--



  Q=219
  C5
  Gtr I
   PM------
     PM------
        PM-------
     PM------

   
--3--
       
--3--
          
--3---
       
--3--

   E  E  E  E E  E  E  E  E E     E   E  E  E E  E  E  E  E E

-----------------------------
-------------------------------

-----------------------------
-------------------------------

-----------------------------
-------------------------------

-----------------------------
-------------------------------

-10-10-10-10---10-10-10-10---
--10--10-10-10---10-10-10-10---

-10-10-10-10---10-10-10-10---
--10--10-10-10---10-10-10-10---



 Gtr II

  PM------
     PM------
        PM-------
     PM------

  
--3--
       
--3--
          
--3---
       
--3--

  E  E  E  E E  E  E  E  E E     E   E  E  E E  E  E  E  E E

-----------------------------
-------------------------------

-----------------------------
-------------------------------

-----------------------------
-------------------------------

-----------------------------
-------------------------------

-10-10-10-10---10-10-10-10---
--10--10-10-10---10-10-10-10---

-10-10-10-10---10-10-10-10---
--10--10-10-10---10-10-10-10---



 Gtr III

  W                              W

-20--------------------------
--19---------------------------

-----------------------------
-------------------------------

-----------------------------
-------------------------------

-----------------------------
-------------------------------

-----------------------------
-------------------------------

-10--------------------------
-(10)--------------------------



    PM-------
     PM------
        PM-------
     PM------

    
--3---
       
--3--
          
--3---
       
--3--

    E   E  E  E E  E  E  E  E E     E   E  E  E E  E  E  E  E E

-------------------------------
--------------------------------

-------------------------------
--------------------------------

-------------------------------
--------------------------------

-------------------------------
--------------------------------

--10--10-10-10---10-10-10-10---
--10--10-10-10---10-10-10-10----

--10--10-10-10---10-10-10-10---
--10--10-10-10---10-10-10-10----



   PM-------
     PM------
        PM-------
     PM------

   
--3---
       
--3--
          
--3---
       
--3--

   E   E  E  E E  E  E  E  E E     E   E  E  E E  E  E  E  E E

-------------------------------
--------------------------------

-------------------------------
--------------------------------

-------------------------------
--------------------------------

-------------------------------
--------------------------------

--10--10-10-10---10-10-10-10---
--10--10-10-10---10-10-10-10----

--10--10-10-10---10-10-10-10---
--10--10-10-10---10-10-10-10----



   W                              +W

--17---------------------------
-(17)---------------------------

-------------------------------
--------------------------------

-------------------------------
--------------------------------

-------------------------------
--------------------------------

-------------------------------
--------------------------------

-(10)--------------------------
-(10)---------------------------



  E5
   PM------
     PM------
        PM-------
     PM------

   
--3--
       
--3--
          
--3---
       
--3--

   E  E  E  E E  E  E  E  E E     E   E  E  E E  E  E  E  E E

-----------------------------
-------------------------------

-----------------------------
-------------------------------

-----------------------------
-------------------------------

-----------------------------
-------------------------------

-14-14-14-14---14-14-14-14---
--14--14-14-14---14-14-14-14---

-14-14-14-14---14-14-14-14---
--14--14-14-14---14-14-14-14---



  PM------
     PM------
        PM-------
     PM------

  
--3--
       
--3--
          
--3---
       
--3--

  E  E  E  E E  E  E  E  E E     E   E  E  E E  E  E  E  E E

-----------------------------
-------------------------------

-----------------------------
-------------------------------

-----------------------------
-------------------------------

-----------------------------
-------------------------------

-14-14-14-14---14-14-14-14---
--14--14-14-14---14-14-14-14---

-14-14-14-14---14-14-14-14---
--14--14-14-14---14-14-14-14---



  W                              W

-20--------------------------
--19---------------------------

-----------------------------
-------------------------------

-----------------------------
-------------------------------

-----------------------------
-------------------------------

-----------------------------
-------------------------------

-14--------------------------
-(14)--------------------------



    PM-------
     PM------
        PM-------
       PM------

    
--3---
       
--3--
          
--3---
         
--3--

    E   E  E  E E  E  E  E  E E     E   E  E  E   E  E  E  E  E E

-------------------------------
---------------------------------

-------------------------------
---------------------------------

-------------------------------
---------------------------------

-------------------------------
---------------------------------

--14--14-14-14---14-14-14-14---
--14--14-14-14-----14-14-14-14---

--14--14-14-14---14-14-14-14---
--14--14-14-14-----14-14-14-14---



   PM-------
     PM------
        TP          TP         TP

   
--3---
       
--3--
          
----------3-----------

   E   E  E  E E  E  E  E  E E     H           H          H

-------------------------------
---------------------------------

-------------------------------
---------------------------------

-------------------------------
---------------------------------

-------------------------------
--10-----------9----------7------

--14--14-14-14---14-14-14-14---
---------------------------------

--14--14-14-14---14-14-14-14---
---------------------------------



   W                              +W

--17---------------------------
-(17)----------------------------

-------------------------------
---------------------------------

-------------------------------
---------------------------------

-------------------------------
---------------------------------

-------------------------------
---------------------------------

-(14)--------------------------
-(14)----------------------------



  Q=219
  C5
  Gtr I
   PM------
     PM------
        PM-------
     PM------

   
--3--
       
--3--
          
--3---
       
--3--

   E  E  E  E E  E  E  E  E E     E   E  E  E E  E  E  E  E E

-----------------------------
-------------------------------

-----------------------------
-------------------------------

-----------------------------
-------------------------------

-----------------------------
-------------------------------

-10-10-10-10---10-10-10-10---
--10--10-10-10---10-10-10-10---

-10-10-10-10---10-10-10-10---
--10--10-10-10---10-10-10-10---



 Gtr II

  PM------
     PM------
        PM-------
     PM------

  
--3--
       
--3--
          
--3---
       
--3--

  E  E  E  E E  E  E  E  E E     E   E  E  E E  E  E  E  E E

-----------------------------
-------------------------------

-----------------------------
-------------------------------

-----------------------------
-------------------------------

-----------------------------
-------------------------------

-10-10-10-10---10-10-10-10---
--10--10-10-10---10-10-10-10---

-10-10-10-10---10-10-10-10---
--10--10-10-10---10-10-10-10---



 Gtr III

  W                              W

-20--------------------------
--19---------------------------

-----------------------------
-------------------------------

-----------------------------
-------------------------------

-----------------------------
-------------------------------

-----------------------------
-------------------------------

-10--------------------------
-(10)--------------------------



    PM-------
     PM------
        PM-------
     PM------

    
--3---
       
--3--
          
--3---
       
--3--

    E   E  E  E E  E  E  E  E E     E   E  E  E E  E  E  E  E E

-------------------------------
--------------------------------

-------------------------------
--------------------------------

-------------------------------
--------------------------------

-------------------------------
--------------------------------

--10--10-10-10---10-10-10-10---
--10--10-10-10---10-10-10-10----

--10--10-10-10---10-10-10-10---
--10--10-10-10---10-10-10-10----



   PM-------
     PM------
        PM-------
     PM------

   
--3---
       
--3--
          
--3---
       
--3--

   E   E  E  E E  E  E  E  E E     E   E  E  E E  E  E  E  E E

-------------------------------
--------------------------------

-------------------------------
--------------------------------

-------------------------------
--------------------------------

-------------------------------
--------------------------------

--10--10-10-10---10-10-10-10---
--10--10-10-10---10-10-10-10----

--10--10-10-10---10-10-10-10---
--10--10-10-10---10-10-10-10----



   W                              +W

--17---------------------------
-(17)---------------------------

-------------------------------
--------------------------------

-------------------------------
--------------------------------

-------------------------------
--------------------------------

-------------------------------
--------------------------------

-(10)--------------------------
-(10)---------------------------



  E5
   PM------
     PM------
        PM-------
     PM------

   
--3--
       
--3--
          
--3---
       
--3--

   E  E  E  E E  E  E  E  E E     E   E  E  E E  E  E  E  E E

-----------------------------
-------------------------------

-----------------------------
-------------------------------

-----------------------------
-------------------------------

-----------------------------
-------------------------------

-14-14-14-14---14-14-14-14---
--14--14-14-14---14-14-14-14---

-14-14-14-14---14-14-14-14---
--14--14-14-14---14-14-14-14---



  PM------
     PM------
        PM-------
     PM------

  
--3--
       
--3--
          
--3---
       
--3--

  E  E  E  E E  E  E  E  E E     E   E  E  E E  E  E  E  E E

-----------------------------
-------------------------------

-----------------------------
-------------------------------

-----------------------------
-------------------------------

-----------------------------
-------------------------------

-14-14-14-14---14-14-14-14---
--14--14-14-14---14-14-14-14---

-14-14-14-14---14-14-14-14---
--14--14-14-14---14-14-14-14---



  W                              W

-20--------------------------
--19---------------------------

-----------------------------
-------------------------------

-----------------------------
-------------------------------

-----------------------------
-------------------------------

-----------------------------
-------------------------------

-14--------------------------
-(14)--------------------------



    PM-------
     PM------
        PM-------
          PM--------

    
--3---
       
--3--
          
--3---
            
--3---

    E   E  E  E E  E  E  E  E E     E   E  E  E      E  E  E   E   E E

-------------------------------
--------------------------------------

-------------------------------
--------------------------------------

-------------------------------
--------------------------------------

-------------------------------
--------------------------------------

--14--14-14-14---14-14-14-14---
--14--14-14-14--------14-14--14--14---

--14--14-14-14---14-14-14-14---
--14--14-14-14--------14-14--14--14---



   PM-------
     PM------
        TP            TP           TP

   
--3---
       
--3--
          
------------3-------------

   E   E  E  E E  E  E  E  E E     H             H            H

-------------------------------
--------------------------------------

-------------------------------
--------------------------------------

-------------------------------
--------------------------------------

-------------------------------
--10-------------9------------7-------

--14--14-14-14---14-14-14-14---
--------------------------------------

--14--14-14-14---14-14-14-14---
--------------------------------------



                                   
------------3-------------

   W                               H             H            H

--17---------------------------
--27------------24-----------22-------

-------------------------------
--------------------------------------

-------------------------------
--------------------------------------

-------------------------------
--------------------------------------

-------------------------------
--------------------------------------

-(14)--------------------------
-(14)----------(14)---------(14)------



 Drum Solo
  Q=189
  D5
  Gtrs I, II
   Q  H.        Wx3

-------------
--------

-------------
--------

-------------
--------

--0----------
--------

--0----------
--------

--0----------
--------



 Gtr III

  Q  H.        Wx3

-22----------
--------

-------------
--------

-------------
--------

-------------
--------

-17----------
--------

-------------
--------



 Interlude
  N.C.
  Gtr III
   E  E  E  E  E  E  E  E    E  E  E  E  E  E  E  E

-17----17----20----17----
-17----17----20----17----

----17----17----17----17-
----17----17----17----17-

-------------------------
-------------------------

-------------------------
-------------------------

-------------------------
-------------------------

-------------------------
-------------------------



   E  E  E  E  E  E  E  E    E  E  E  E  E  E  E  E

-17----17----20----17----
-17----17----20----17-----

----17----17----17----17-
----17----17----17----17--

-------------------------
--------------------------

-------------------------
--------------------------

-------------------------
--------------------------

-------------------------
--------------------------



    Gtr II
     PM------
      PM-----------------
      PM-------
     E  E  E  E  E  E  E  E    E  E  E  E  E  E  E  E

--------------------------
-------------------------


o-------------------------
-------------------------


--------------------------
-------------------------


--------------------------
-------------------------


o--------------8----------
--------------7----------


---0--0--0--0-----0--0--0-
--0--0--0--0-----0--0--0-



   Gtr III

    E  E  E  E  E  E  E  E    E  E  E  E  E  E  E  E

--17----17----20----17----
-17----17----20----17----


o----17----17----17----17-
----17----17----17----17-


--------------------------
-------------------------


--------------------------
-------------------------


o-------------------------
-------------------------


--------------------------
-------------------------



 ----------
      PM-----------------

   E  E  E  E  E  E  E  E    E  E  E  E  E  E  E  E

-------------------------
--------------------------


-------------------------
-------------------------o


-------------------------
--------------------------


-------------------------
--------------5h=7--5h=7--


--------------5----------
-------------------------o


--0--0--0--0-----0--0--0-
--0--0--0--0--------------



  E  E  E  E  E  E  E  E    E  E  E  E  E  E  E  E

-17----17----20----17----
-17----17----20----17-----


----17----17----17----17-
----17----17----17----17-o


-------------------------
--------------------------


-------------------------
--------------------------


-------------------------
-------------------------o


-------------------------
--------------------------



    Gtr I
     PM---------
                PM---------

     
-3-
  
-3-
                
-3-
  
-3-

     E E E  E E E  E  E  E  E    E E E  E E E  E E  E E

----------------------------
-------------------------


o---------------------------
-------------------------


----------------10-10-10-10-
----------------9-9--9-9-


-----------------x--x--x--x-
----------------x-x--x-x-


o----------------8--8--8--8-
----------------7-7--7-7-


---0-0-0--0-0-0-------------
--0-0-0--0-0-0-----------



   Gtr II

    PM---------
     PM--------------------
    PM------

    
-3-
  
-3-
                
-3-
  
-3-

    E E E  E E E  E  E  E  E    E E E  E E E  E E  E E

----------------------------
-------------------------


o---------------------------
-------------------------


----------------------------
-------------------------


----------------------------
-------------------------


o----------------8----------
----------------7--------


---0-0-0--0-0-0-----0--0--0-
--0-0-0--0-0-0----0--0-0-



   Gtr III

    Q      Q      Q     Q       Q      Q      Q    Q

--17------------20----------
-17------------20--------


o--------17-----------17----
--------17----------17---


----------------------------
-------------------------


----------------------------
-------------------------


o---------------------------
-------------------------


----------------------------
-------------------------



   PM---------
              PM---------

   
-3-
  
-3-
              
-3-
  
-3-

   E E E  E E E  E E  E E    E E E  E E E   E  E  E  E

-------------------------
-------------------------------


-------------------------
------------------------------o


----------------7-7--7-7-
----------------12-12-12-12----


----------------x-x--x-x-
-----------------x--x--x--x----


----------------5-5--5-5-
---------------/10-10-10-10---o


--0-0-0--0-0-0-----------
--0-0-0--0-0-0-----------------



-------------
    PM-------------------

  
-3-
  
-3-
              
-3-
  
-3-

  E E E  E E E  E E  E E    E E E  E E E   E  E  E  E

-------------------------
-------------------------------


-------------------------
------------------------------o


-------------------------
-------------------------------


-------------------------
-------------------------------


----------------5--------
---------------/10-10-10-10---o


--0-0-0--0-0-0----0--0-0-
--0-0-0--0-0-0-----------------



  Q      Q      Q    Q      Q      Q       Q     Q

-17------------20--------
-17-------------20-------------


--------17----------17---
--------17------------17------o


-------------------------
-------------------------------


-------------------------
-------------------------------


-------------------------
------------------------------o


-------------------------
-------------------------------



 Verse
  Bb5   F5/Bb                              E5/A
  Gtrs I, II
   H     Q.    E    +E   E  Q   E  Q   E    H    Q.   E    +E  E Q   E Q  E

----------------
-----------------------
--------------
--------------------

----------------
-----------------------
--------------
--------------------

----------------
-----------------------
--------------
--------------------

--8----10----10-
-(10)-10-10--10-10--10-
--9----9----9-
--(9)-9-9---9-9--9--

--8-----8-----8-
--(8)--8--8---8--8---8-
--7----7----7-
--(7)-7-7---7-7--7--

--8-----8-----8-
--(8)--8--8---8--8---8-
--7----7----7-
--(7)-7-7---7-7--7--



 Gtr III

  W                +W                      W              +H        H

-13-------------
-(13)------------------
-12-----------
-(12)---------------

----------------
-----------------------
--------------
-----------13-------

----------------
-----------------------
--------------
--------------------

-10-------------
-(10)------------------
--9-----------
--(9)---------------

----------------
-----------------------
--------------
-----------10-------

----------------
-----------------------
--------------
--------------------



  Bb5   F5/Bb                              A5                          E5
                                            PM--
      PM----

   H     Q.    E    +E   E  Q   E  Q   E    E E E Q.   E E     E  Q.   H

----------------
-----------------------
-----------------
-----------------

----------------
-----------------------
-----------------
-----------------

----------------
-----------------------
-----------------
-----------------

--8----10----10-
-(10)-10-10--10-10--10-
--------7--------
------7----2/----

--8-----8-----8-
--(8)--8--8---8--8---8-
--7-7-7-7----7-7-
---7--7----2/----

--8-----8-----8-
--(8)--8--8---8--8---8-
--7-7-7-7----7-7-
---7--7----2/----



  W                +H          H           W                 +W

-13-------------
-(13)--------15--------
-12--------------
-(12)------------

----------------
-----------------------
-----------------
-----------------

----------------
-----------------------
-----------------
-----------------

-10-------------
-(10)--------12--------
--9--------------
--(9)------------

----------------
-----------------------
-----------------
-----------------

----------------
-----------------------
-----------------
-----------------



  Bb5   F5/Bb                              E5/A
  Gtrs I, II
   H     Q.    E    +E   E  Q   E  Q   E    H    Q.   E    +E  E Q   E Q  E

----------------
-----------------------
--------------
--------------------

----------------
-----------------------
--------------
--------------------

----------------
-----------------------
--------------
--------------------

--8----10----10-
-(10)-10-10--10-10--10-
--9----9----9-
--(9)-9-9---9-9--9--

--8-----8-----8-
--(8)--8--8---8--8---8-
--7----7----7-
--(7)-7-7---7-7--7--

--8-----8-----8-
--(8)--8--8---8--8---8-
--7----7----7-
--(7)-7-7---7-7--7--



 Gtr III

  W                +W                      W              +H        H

-13-------------
-(13)------------------
-12-----------
-(12)---------------

----------------
-----------------------
--------------
-----------13-------

----------------
-----------------------
--------------
--------------------

-10-------------
-(10)------------------
--9-----------
--(9)---------------

----------------
-----------------------
--------------
-----------10-------

----------------
-----------------------
--------------
--------------------



  Bb5   F5/Bb                              A5                          Eb5
  Gtr I
                                            PM--
      PM----

   H     Q.    E    +E   E  Q   E  Q   E    E E E Q.   E E     E  Q.   H

----------------
-----------------------
-----------------
-----------------

----------------
-----------------------
-----------------
-----------------

----------------
-----------------------
-----------------
-----------------

--8----10----10-
-(10)-10-10--10-10--10-
--------7\-------
------7\---1s====

--8-----8-----8-
--(8)--8--8---8--8---8-
--7-7-7-7\---7-7-
---7--7\---1s====

--8-----8-----8-
--(8)--8--8---8--8---8-
--7-7-7-7\---7-7-
---7--7\---1s====



 Gtr II

                                           PM--
      PM----

  H     Q.    E    +E   E  Q   E  Q   E    E E E Q.   E E     E  Q.   H

----------------
-----------------------
-----------------
-----------------

----------------
-----------------------
-----------------
-----------------

----------------
-----------------------
-----------------
-----------------

--8----10----10-
-(10)-10-10--10-10--10-
--------7\-------
------7\---1-----

--8-----8-----8-
--(8)--8--8---8--8---8-
--7-7-7-7\---7-7-
---7--7\---1-----

--8-----8-----8-
--(8)--8--8---8--8---8-
--7-7-7-7\---7-7-
---7--7\---1-----



 Gtr III

  W                +H          H           W                 +W

-13-------------
-(13)--------17--------
-12--------------
-(12)------------

----------------
-----------------------
-----------------
-----------------

----------------
-----------------------
-----------------
-----------------

-10-------------
-(10)--------14--------
--9--------------
--(9)------------

----------------
-----------------------
-----------------
-----------------

----------------
-----------------------
-----------------
-----------------



    Q=201
    B5                                G5
    Q  E Q   E Q    +E  E Q  E E Q    Q  E Q   E Q    +E  E Q  E E Q   4x

----------------
-----------------
---------------
------------------


o---------------
-----------------
---------------
-----------------o


----------------
-----------------
---------------
------------------


--9--9-9---9-9--
-(9)-9-9--9-9-9--
-5--5-5---5-5--
-(5)-5-5--5-5-5---


o-9--9-9---9-9--
-(9)-9-9--9-9-9--
-5--5-5---5-5--
-(5)-5-5--5-5-5--o


--9--9-9---9-9--
-(9)-9-9--9-9-9--
-5--5-5---5-5--
-(5)-5-5--5-5-5---



   TP TP  TP  TP    TP   TP TP  TP   TP TP  TP  TP    TP   TP TP  TP

   Q  Q   Q   Q     Q    Q  Q   Q    Q  Q   Q   Q     Q    Q  Q   Q   4x

----------------
-----------------
---------------
------------------


o---------------
-----------------
---------------
-----------------o


----------------
-----------------
---------------
------------------


--4--5---7---4--
--4----5--7---4--
---------------
------------------


o---------------
-----------------
-5--7---9---5--
--9----7--9---5--o


----------------
-----------------
---------------
------------------



 Bridge
  D5N.C.
  E H..         W          W          W

-------------
----------
----------
-------------------

-------------
----------
----------
-------------------

-------------
----------
----------
-------------------

-0-----------
----------
----------
-------------------

-0-----------
----------
----------
-------------------

-0-----------
----------
----------
-------------------



 Gtr II

 TP            TP         TP         TP

                                          
-3-
 
-3-

 W             W          W          H    E E E E E E

-------------
----------
----------
-------------------

-------------
----------
----------
-------------------

-------------
----------
----------
-------------------

-------------
-7--------
----------
-8----------5h7h8--

-5-----------
----------
-5--------
------5h7h8--------

-------------
----------
----------
-------------------



   Verse
    Q=190
    Eb5/Ab                 BbC5 G#5  D5/G                   G5F5
                                                                ~
    Q  E E Q  E E   Q  E E E  E Q    Q  E E Q  E E   Q  E E E E Q

----------------
----------------
---------------
---------------


o---------------
----------------
---------------
---------------


----------------
----------------
---------------
---------------


--8--8-8-8--8-8-
-8--8-8-8-10-6--
-7--7-7-7--7-7-
-7--7-7-5-3-3--


o-6--6-6-6--6-6-
-6--6-6-8-10-6--
-5--5-5-5--5-5-
-5--5-5-5-3-3--


--6--6-6-6--6-6-
-6--6-6-8-10-6--
-5--5-5-5--5-5-
-5--5-5-5-3-3--



                                                               ~

   Q  E E Q  E E   Q  E E E  E Q    Q  E E Q  E E   Q  E E E E Q

----------------
----------------
---------------
---------------


o---------------
----------------
---------------
---------------


----------------
----------------
---------------
---------------


--8--8-8-8--8-8-
-8--8-8-8-10-6--
-7--7-7-7--7-7-
-7--7-7-5-3-3--


o-6--6-6-6--6-6-
-6--6-6-8-10-6--
-5--5-5-5--5-5-
-5--5-5-5-3-3--


--6--6-6-6--6-6-
-6--6-6-8-10-6--
-5--5-5-5--5-5-
-5--5-5-5-3-3--



  1.,2.
  D5
  PM-----------------------------------
  E E E E E E E E    E  E E E E E E E

-----------------
-------------------

-----------------
-------------------

-----------------
-------------------

-----------------
-------------------

-0-0-0-0-0-0-0-0-
--0--0-0-0-0-0-0-0-

-0-0-0-0-0-0-0-0-
--0--0-0-0-0-0-0-0-



 TP      TP         TP       TP

 H       H         +H        H

-----------------
-------------------

-----------------
-------------------

-----------------
-------------------

---------7-------
-(7)-------8-------

-5---------------
-------------------

-----------------
-------------------



 -----------------------------------------

  E E E E E E E E    E  E E E E   E   E   E      3x

-----------------
------------------------------


-----------------
-----------------------------o


-----------------
------------------------------


-----------------
------------------------------


-0-0-0-0-0-0-0-0-
--0--0-0-0-0---0---0---0-----o


-0-0-0-0-0-0-0-0-
--0--0-0-0-0---0---0---0------



 TP      TP         TP

                             
--3--
 
--3--

 H       H         +H        E E   E E E   E    3x

-----------------
------------------------------


-----------------
-----------------------------o


-----------------
------------------------------


-7---------------
-------------------5h7h==8----


---------5-------
-(5)-------5h7h==8-----------o


-----------------
------------------------------



 Bridge
  3.                    Q=170
  D5
  Q  H.        W          W          W

------------
----------
----------
------

------------
----------
----------
------

------------
----------
----------
------

-0----------
----------
----------
------

-0----------
----------
----------
------

-0----------
----------
----------
------



 Q  H.        W          W          W

------------
----------
----------
------

------------
----------
----------
------

------------
----------
----------
------

-0----------
----------
----------
------

-0----------
----------
----------
------

-0----------
----------
----------
------



   Breakdown
    D5                        A5BbA5G5   D5                        A5BbA5F#5
    PM---------------------
        ~    PM---------------------
        ~
          
-3-
 
-3-
         
-3-
            
-3-
 
-3-
         
-3-

    q  q  E E E E E E   q  q  E E E Q    q  q  E E E E E E   q  q  E E E Q    4x

--------------------
----------------
-------------------
------------------


o-------------------
----------------
-------------------
-----------------o


--------------------
----------------
-------------------
------------------


--------------------
-------7h8p7-5--
-------------------
-------7h8p7-4----


o-0--0--------------
-0--0--7h8p7-5--
-0--0--------------
-0--0--7h8p7-4---o


--0--0--0-0-0-0-0-0-
-0--0--7h8p7-5--
-0--0--0-0-0-0-0-0-
-0--0--7h8p7-4----



   PM---------------------
        ~    PM---------------------
        ~

         
-3-
 
-3-
         
-3-
            
-3-
 
-3-
         
-3-

   q  q  E E E E E E   q  q  E E E Q    q  q  E E E E E E   q  q  E E E Q    4x

--------------------
----------------
-------------------
------------------


o-------------------
----------------
-------------------
-----------------o


--------------------
----------------
-------------------
------------------


--------------------
-------7h8p7-5--
-------------------
-------7h8p7-4----


o-0--0--------------
-0--0--7h8p7-5--
-0--0--------------
-0--0--7h8p7-4---o


--0--0--0-0-0-0-0-0-
-0--0--7h8p7-5--
-0--0--0-0-0-0-0-0-
-0--0--7h8p7-4----



  N.C.                      F5 G#5F#5Eb5
                            PM-------

  
-3-
 
-3-
 
-3-
 
-3-

  E E E E E E E E E E E E   q  q  q  q

-------------------------
-------------

-------------------------
-------------

-------------------------
-------------

-------------------------
-------------

-3-3-3-6-6-6-4-4-4-1-1-1-
-3--6--4--1--

-------------------------
-3--6--4--1--



                           PM-------

 
-3-
 
-3-
 
-3-
 
-3-

 E E E E E E E E E E E E   q  q  q  q

-------------------------
-------------

-------------------------
-------------

-------------------------
-------------

-------------------------
-------------

-3-3-3-6-6-6-4-4-4-1-1-1-
-3--6--4--1--

-------------------------
-3--6--4--1--



 Bridge
  D5  N.C.
  Q   H.            W

-----------------
-------------------

-----------------
-------------------

-----------------
-------------------

-0---------------
-------------------

-0---------------
-------------------

-0---------------
-------------------



 Gtr IV

 PM-----------------------------------

 E E E  Q.   E E   E E  E  E E E E E

-----------------
-------------------

-----------------
-------------------

-----------------
-------------------

-----------------
-------------------

-----------------
-----10----6---7---

-0-0-0-------0-0-
-0-0----11---7---8-



    W                W                   3x

-----------------
---------------------


o----------------
--------------------o


-----------------
---------------------


-----------------
---------------------


o----------------
--------------------o


-----------------
---------------------



------------------------------------

   E E E Q.   E E   E E  E  E E E E E   3x

-----------------
---------------------


o----------------
--------------------o


-----------------
---------------------


-----------------
---------------------


o----------------
-----10----6---7----o


--0-0-0------0-0-
-0-0----11---7---8---



   Verse
    D5                   N.C.            D5                   N.C.
    Gtr I
    PM--------------------------------------------------------------------

    E E E Q.   E E   E E  E  E E E E E   E E E Q.   E E   E E  E  E E E E E  4x

-----------------
-------------------
----------------
--------------------


o----------------
-------------------
----------------
-------------------o


-----------------
-------------------
----------------
--------------------


-----------------
-------------------
----------------
--------------------


o-0-0-0------0-0-
-0-0-10----6---7---
-0-0-0------0-0-
-0-0-10----6---7---o


--0-0-0------0-0-
-0-0----11---7---8-
-0-0-0------0-0-
-0-0----11---7---8--



   Gtr II

   PM--------------------------------------------------------------------

   E E E Q.   E E   E E  E  E E E E E   E E E Q.   E E   E E  E  E E E E E  4x

-----------------
-------------------
----------------
--------------------


o----------------
-------------------
----------------
-------------------o


-----------------
-------------------
----------------
--------------------


-----------------
-------------------
----------------
-----10----6---7----


o-0-0-0------0-0-
-0-0-10----6---7---
-0-0-0------0-0-
-0-0----11---7---8-o


--0-0-0------0-0-
-0-0----11---7---8-
-0-0-0------0-0-
-0-0----------------



  D5  N.C.
  TP     TP   TP   TP  TP
  Q.     H    E   +Q   H.

---------------
------------

---------------
------------

---------------
------------

-7------5------
------------

-------------8-
-(8)--5-----

---------------
------------



 Q   H.           W

---------------
------------

---------------
------------

---------------
------------

-0-------------
------------

-0-------------
------------

-0-------------
------------



    Q=198
    D5
    Gtr I
     E  E E Q  E Q        E  E E Q  E Q

---------------------
--------------------


o--------------------
--------------------


---------------------
--------------------


---0--0-0-0--0-0-----
--0--0-0-0--0-0-----


o--0--0-0-0--0-0-----
--0--0-0-0--0-0-----


---0--0-0-0--0-0-----
--0--0-0-0--0-0-----



   Gtr II

    TP     TP      TP    TP     TP      TP

    Q.     H      +E     Q.     H      +E

---------------------
--------------------


o--------------------
--------------------


---------------------
--------------------


---7------5------(5)-
--------------------


o--------------------
--8------5------(5)-


---------------------
--------------------



   Gtr III

    W                    W

--13-----------------
-10-----------------


o--------------------
--------------------


--10-----------------
--7-----------------


---------------------
--------------------


o--------------------
--------------------


---------------------
--------------------



  F5
   E   E E Q  E Q        E  E E  Q   E Q

--------------------
----------------------

--------------------
----------------------

--------------------
----------------------

--3---3-3-3--3-3----
---3--3-3--3---3-3----

--3---3-3-3--3-3----
---3--3-3--3---3-3----

--3---3-3-3--3-3----
---3--3-3--3---3-3----



  TP              TP    TP

  H..             E    +Q.      E E E E  E

--------------------
----------------------

--------------------
----------------------

--------------------
----------------------

--------------------
----------------------

--7-----------------
-------------7h8p7----

-----------------10-
-(10)-----10-------10-



  W                    +W

-12-----------------
-(12)-----------------

--------------------
----------------------

--9-----------------
--(9)-----------------

--------------------
----------------------

--------------------
----------------------

--------------------
----------------------



  1.
  F5
    E   Q  E E Q   E     E  Q  E E E E E

--------------------
-------------------

--------------------
-------------------

--------------------
-------------------

---3---3--3-3-3---3-
---3--3--3-3-3-3-3-

---3---3--3-3-3---3-
---3--3--3-3-3-3-3-

---3---3--3-3-3---3-
---3--3--3-3-3-3-3-



   TP             TP    TP

   H..            E    +W

--------------------
-------------------

--------------------
-------------------

--------------------
-------------------

--------------------
-------------------

---7----------------
-------------------

-----------------10-
-(10)--------------



  +W                   +W

-(12)---------------
-(12)--------------

--------------------
-------------------

--(9)---------------
--(9)--------------

--------------------
-------------------

--------------------
-------------------

--------------------
-------------------



  D5
   E   E E Q  E Q         E  E E Q  E Q

---------------------
-----------------------


---------------------
----------------------o


---------------------
-----------------------


--0---0-0-0--0-0-----
---0--0-0-0--0-0-------


--0---0-0-0--0-0-----
---0--0-0-0--0-0------o


--0---0-0-0--0-0-----
---0--0-0-0--0-0-------



  TP      TP      TP     TP     TP      TP

  Q.      H      +E      Q.     H      +E

---------------------
-----------------------


---------------------
----------------------o


---------------------
-----------------------


--7-------5------(5)-
-----------------------


---------------------
---8------5------(5)--o


---------------------
-----------------------



  H..             E     +W

-13--------------10--
-(10)------------------


---------------------
----------------------o


-10---------------7--
--(7)------------------


---------------------
-----------------------


---------------------
----------------------o


---------------------
-----------------------



  2.
  F5
   E   Q  E E Q   E     E  Q  E E E E E

-------------------
-------------------

-------------------
-------------------

-------------------
-------------------

--3---3--3-3-3---3-
---3--3--3-3-3-3-3-

--3---3--3-3-3---3-
---3--3--3-3-3-3-3-

--3---3--3-3-3---3-
---3--3--3-3-3-3-3-



  TP             TP    TP

  H..            E    +W

-------------------
-------------------

-------------------
-------------------

-------------------
-------------------

-------------------
-------------------

--7----------------
-------------------

----------------10-
-(10)--------------



  W                   +W

-12----------------
-(12)--------------

-------------------
-------------------

--9----------------
--(9)--------------

-------------------
-------------------

-------------------
-------------------

-------------------
-------------------



  Eb5                  F5          G5
   PM--
    PM--
        PM---
    PM--

   
-3-
    
-3-
        
-3--
    
-3-

   E E E Q  E E E Q      E  E E Q  E E E Q

--------------------
-------------------------

--------------------
-------------------------

--------------------
-------------------------

--------1--------1--
----------3--------5-----

--1-1-1-1--1-1-1-1--
---3--3-3-3--5-5-5-5-----

--1-1-1-1--1-1-1-1--
---3--3-3-3--5-5-5-5-----



  PM--
    PM--
        PM---
    PM--

  
-3-
    
-3-
        
-3--
    
-3-

  E E E Q  E E E Q      E  E E Q  E E E E E

--------------------
-------------------------

--------------------
-------------------------

--------------------
-------------------------

--------1--------1--
----------3--5-5-5-5-----

--1-1-1-1--1-1-1-1--
---3--3-3-3----------5---

--1-1-1-1--1-1-1-1--
---3--3-3-3--------------



  W                    +W

-13-----------------
-(13)--------------------

--------------------
-------------------------

-10-----------------
-(10)--------------------

--------------------
-------------------------

--------------------
-------------------------

--------------------
-------------------------



    Eb5
     E  E E  Q  E Q         E  E E  Q  E Q

-----------------------
----------------------


o----------------------
----------------------


-----------------------
----------------------


---1--1-1--1--1-1------
--1--1-1--1--1-1------


o--1--1-1--1--1-1------
--1--1-1--1--1-1------


---1--1-1--1--1-1------
--1--1-1--1--1-1------



    TP      TP       TP    TP      TP       TP

    Q.      H       +E     Q.      H       +E

-----------------------
----------------------


o----------------------
----------------------


-----------------------
----------------------


-----------------------
----------------------


o-10-------8-------(8)-
----------------------


-----------------------
-12-------8-------(8)-



    Q.      H       +E     Q.      H       +E

--15------13------(13)-
----------------------


o----------------------
-15------11------(11)-


-----------------------
----------------------


-----------------------
----------------------


o-10-------8-------(8)-
----------------------


-----------------------
-12-------8-------(8)-



  F5
   E E E Q    E  Q      E  E E Q  E Q   4x

-------------------
-------------------


-------------------
------------------o


-------------------
-------------------


--3-3-3-3----3--3--
---3--3-3-3--3-3---


--3-3-3-3----3--3--
---3--3-3-3--3-3--o


--3-3-3-3----3--3--
---3--3-3-3--3-3---



  TP       TP   TP     TP

  H        Q    Q     +W               4x

-------------------
-------------------


-------------------
------------------o


-------------------
-------------------


-------------------
-------------------


----------12---10--
-(10)-------------o


-10----------------
-------------------



  H        Q    Q     +W               4x

----------17---15--
-(15)--------------


-13----------------
------------------o


-------------------
-------------------


-------------------
-------------------


----------12---10--
-(10)-------------o


-10----------------
-------------------



  D5     N.C.                       D5
  Q   H.            W                Q  H.

-----------------
---------------
-----------

-----------------
---------------
-----------

-----------------
---------------
-----------

-0---------------
---------------
--0--------

-0---------------
---------------
--0--------

-0---------------
---------------
--0--------



 TP     TP    TP   TP   TP    TP

 Q.     H    +E    Q.   H    +E     Q  H.

-----------------
---------------
-----------

-----------------
---------------
-----------

-----------------
---------------
-----------

-7------5----(5)-
---------------
--0--------

-----------------
-8----5----(5)-
--0--------

-----------------
---------------
--0--------



 W                 W                Q  H.

-----------------
---------------
-10--------

-----------------
---------------
-----------

-----------------
---------------
-----------

-----------------
---------------
-----------

-----------------
---------------
--5--------

-----------------
---------------
-----------



   Outro
    Q=158                        1.,2.
    Eb                            F#
    Gtr III
    Q  Q  Q  Q     Q   Q  Q  Q    Q  Q  Q  Q     Q   Q  H     3x

--------------
---------------
-------------
---------------


o-------------
---------------
-------------
--------------o


--------------
---------------
-------------
---------------


--9--8-----9--
--8------9--8--
-3--4--6--7--
--6---4--3-----


o-------9-----
------9--------
-------------
--------------o


--1-----------
-(1)-----------
-4-----------
-(4)-----------

    W             +W              W             +W


  3.
  Q  Q  Q  Q    +H     H

-------6--7--
-(7)----6----

-6--7--------
-------------

-------------
-------------

-------------
-------------

-------------
-------------

-4-----------
-(4)---------

  W             +W


  Bb                          F#
  Q  Q  Q  Q    +H     H       Q   H     Q     +H      H

-------6--7--
-(7)----6----
-19--18--------
---------------

-6--7--------
-------------
-----------19--
-(19)----18----

-------------
-------------
---------------
---------------

-------------
-------------
---------------
---------------

-------------
-------------
---------------
---------------

-8-----------
-(8)---------
--4------------
--(4)----------

  W             +W             W               +W


  Bb                              F#
   Q   H     Q     +H      H      Q  Q  Q  Q    +H     H

-19--18--------
---------------
-------6--7--
-(7)----6----

-----------19--
-(19)----18----
-6--7--------
-------------

---------------
---------------
-------------
-------------

---------------
---------------
-------------
-------------

---------------
---------------
-------------
-------------

--8------------
--(8)----------
-4-----------
-(4)---------

   W               +W             W             +W


  Eb                          F#
  Q  Q  Q  Q    +H     H      Q  Q  Q  Q    +H     H

-------6--7--
-(7)----6----
-------------
-------------

-6--7--------
-------------
-------------
-------------

-------------
-------------
-------3--4--
-(4)----3----

-------------
-------------
-3--4--------
-------------

-------------
-------------
-------------
-------------

-1-----------
-(1)---------
-4-----------
-(4)---------

  W             +W            W             +W


    Eb                            F#
    Q  Q  Q  Q     Q   Q  Q  Q    Q  Q  Q  Q     Q   Q  H

--------------
---------------
-------------
---------------


o-------------
---------------
-------------
--------------o


--------------
---------------
-------------
---------------


--9--8-----9--
--8------9--8--
-3--4--6--7--
--6---4--3-----


o-------9-----
------9--------
-------------
--------------o


--1-----------
-(1)-----------
-4-----------
-(4)-----------

    W             +W              W             +W



Duration Legend
---------------
W - whole; H - half; Q - quarter; E - 8th; S - 16th; T - 32nd; X - 64th; a - acciaccatura
+ - note tied to previous; . - note dotted; .. - note double dotted
Uncapitalized letters represent notes that are staccato (1/2 duration)
Irregular groupings are notated above the duration line
Duration letters will always appear directly above the note/fret number it represents the
duration for.  Duration letters with no fret number below them represent rests.  Multi-
bar rests are notated in the form Wxn, where n is the number of bars to rest for.  Low
melody durations appear below the staff

Tablature Legend
----------------
 h   - hammer-on
 p   - pull-off
 b   - bend
 pb  - pre-bend
 r   - bend release (if no number after the r, then release immediately)
 /\  - slide into or out of (from/to "nowhere")
 s   - legato slide
 S   - shift slide
 - natural harmonic
[n]  - artificial harmonic
n(n) - tapped harmonic
 ~   - vibrato
 tr  - trill
 T   - tap
 TP  - trem. picking
 PM  - palm muting
\n/  - tremolo bar dip; n = amount to dip
 \n  - tremolo bar down
 n/  - tremolo bar up
/n\  - tremolo bar inverted dip
 =   - hold bend; also acts as connecting device for hammers/pulls
 <> - volume swell (louder/softer)
 x   - on rhythm slash represents muted slash
 o   - on rhythm slash represents single note slash

Misc Legend
-----------
 
  - bar

  - double bar

o - repeat start
o
 - repeat end
*
  - double bar (ending)
 :  - bar (freetime)
 $  - Segno
 &  - Coda
Tempo markers -  = BPM(8/16=s8/s16), where s8 = swing 8ths, s16 = swing 16ths



 


/
How To Set Up Higher Praise As Your Home Page
Copyright 1999, Higher Praise HigherPraise,Inc. All rights reserved. Terms of Use

Enjoy A Life Changing Experience

 
 
 
HigherPraise, Higher Praise, HigherPraise, Higher Praise, HigherPraise

Members..Sign Up. LogIn

 
 

Higher Praise Other Sites
 
 

HigherPraise.org/
Praise And Worship
www.higherpraise.org

HigherPraise.net
Christian Resources
www.higherpraise.net

HigherPraiseTube.com
Videos And Audios
www.higherpraisetube.com.


ChristianLyrics.org

Lyrics And Chrords
www.christianlyrics.org

ChristianChordsLyrics

Lyrics And Chrords
www.christianchordslyrics.com

ChristianChordLyrics

Lyrics And Chrords
www.christianchordlyrics.com

WorshipLyrics.org
10.000 Illustrations
www.worshiplyrics.org

WorshipLyrics.net
10.000 Illustrations
www.worshiplyrics.net

PraiseLyrics.com
PowerPoint Lyrics

www.praiselyrics.com

PraiseLyrics.org
PowerPoint Lyrics

www.praiselyrics.org

1GodTube.com
Chistian Videos

www1godtube..com

OneGodTube.com
Chistian Videos

www.onegodtube..com

 

/
Copyright 1999 - 2019, Higher Praise™ HigherPraise™,Inc. All rights reserved. Terms of Use