Higher Praise - Guitar Chords, Lyrics  GuitarTabs -  Praise nad Worship Music And Christian Songs

Higher Praise - Guitar Tabs, Guitar Chords, Lyrics
   Lyrics, Chords And Tabs
   Popular Lyrics Chords Tab
   Power Point Lyrics
   Praise & Worship Music
   Christian Music Videos
   15900 Videos & Audios
   Midi Files
   Worship Questions
   Christmas Chords, Lyrics
   Lyrics, Chords Tabs Rated

Sermon Outlines And Audio Sermons
   9344 Sermon Outlines
   N.T. Sermon Outlines
   O.T. Sermon Outlines
   Special Guest Outlines
   10.000 Illustrations
   Sunday School Studies
   Bible College Studies
   Greatest Preachers
   Bible Research Tools
Audio Sermons
   2895 Audio Sermons
   85 Sermon Videos
   291 Special Guests Serm

   Complete Audio Bible
Higher Praise Sunday School Teaching
   Children's NT Studies
   Children's OT Studies

   98 Children's Midis
   Gospel For Kids Movie
   Children's JESUS Film
Higher Praise Christian Video Library ,Videos
   Christian Television
   TBN TV Live
   15,000 Videos - HP Tube
   712 Youth Music Vids
  Christian Video Library
   Praise Videos #1 & #2
   85 Sermon Videos
   Prophecy Film -Videos
   JESUS Film -Video
   Childrens JESUS Film
   Gospel For Kids Movie
   Passion Of The Christ
   Noah, Sodom, Sinai, Ark
   Tsunami Videos Photos
News And Information
   Testimonies
   Submit Lyrics, Tabs, Serm
   10.000 Illustrations
   Bible College Course
   Clipart & Web Graphics
   Greatest Preachers
   Complete Talking Bible
   Christian Chat Rooms
   Links Church Resource
   HP Statement Of Faith
Download Clipart
   Audio Sermons
   Clipart & Web Graphics
   Church Administration
   Bible Study Software
   Screen Savers Software
   Verse A Day Software
   Educational Games
   Trade Center Photos

   Soft. Search Engine
Higher Praise News
   Current News
    Archived News
   Submit News
   Newsletter   Higher Praise Interact Prayer
   Prayer For All Needs
   
Submit Lyrics, Sermons
   
Contact Higher Praise
   
Advertising 
   Privacy Policy
//
He Died For You,  Click For Answer! This Is Who Jesus Is Video

'
 
0-9 A B C D E F G H I J K L M N O P Q R S T U V W X Y Z
.

//
Click For Printable...Version Of This File
 

Breathing In A New Mentality


by Underoath




-------------------------------------------------------------------------------
			     And I Dreamt of You - Underoath
-------------------------------------------------------------------------------



Tuning: drop d (DADGBE)

Here’s most of the song.There are a few parts that I haven’t figured out yet so
I noted that I either skipped them or that I’m not sure about them .  Once
I figure them out I’ll repost this.


Intro: 0:00 - 0:19
Guitar 1					8x
e
----
------------------------------------------------------------------------

B
----
------------------------------------------------------------------------

G
----
------------------------------------------------------------------------

D
--1-
-0--30-1-1--------------------------------------------------------------

A
--1-
-0--30-1-1--------------------------------------------------------------

D
--1-
-0--30-1-1--------------------------------------------------------------


Guitar 2					2x
e
----------
----------------------------------------------------------------

B
----------
----------------------------------------------------------------

G
----------
----------------------------------------------------------------

D
-111333555
7777777777777777777888888888-11-10-8-10-------------------------

A
----------
----------------------------------------------------------------

D
----------
----------------------------------------------------------------


0:19 – 0:29
Guitar 1					2x
e
---------------------------------------------------------------------------

B
---------------------------------------------------------------------------

G
---------------------------------------------------------------------------

D
-1-0-30-1-1----------------------------------------------------------------

A
-1-0-30-1-1----------------------------------------------------------------

D
-1-0-30-1-1----------------------------------------------------------------


Guitar 2
e
---------------------------------------------------------------------------

B
---------------------------------------------------------------------------

G
---------------------------------------------------------------------------

D
--7777777777777--888-------------------------------------------------------

A
---------------------------------------------------------------------------

D
---------------------------------------------------------------------------


Guitar 2
e
---------------------------------------------------------------------------

B
---------------------------------------------------------------------------

G
---------------------------------------------------------------------------

D
--888888888888888888--11-10-8-10-------------------------------------------

A
---------------------------------------------------------------------------

D
---------------------------------------------------------------------------


0:30 – 0:44 (Not sure about Guitar 1)
Guitar 1					10x
e
---------------------------------------------------------------------------

B
---------------------------------------------------------------------------

G
---------------------------------------------------------------------------

D
--5-8-4-7-2-5-3-6----------------------------------------------------------

A
---------------------------------------------------------------------------

D
---------------------------------------------------------------------------


Guitar 2 (Start at 0:33 )			4x
e
---------------------------------------------------------------------------

B
---------------------------------------------------------------------------

G
---------------------------------------------------------------------------

D
---------------------------------------------------------------------------

A
---------------------------------------------------------------------------

D
--0000000000000000008888888888888888888------------------------------------


End Chord
e
---------------------------------------------------------------------------

B
---------------------------------------------------------------------------

G
---------------------------------------------------------------------------

D
---0-----------------------------------------------------------------------

A
---0-----------------------------------------------------------------------

D
---0-----------------------------------------------------------------------


0:45 – 1:01
Guitar 1
e
---------------------------------------------------------------------------

B
---------------------------------------------------------------------------

G
---------------------------------------------------------------------------

D
--0000-1111-3333-0000-1111-3333-5555-11-33---------------------------------

A
---------------------------------------------------------------------------

D
---------------------------------------------------------------------------


Guitar 2 (Not Sure)
e
---------------------------------------------------------------------------

B
---------------------------------------------------------------------------

G
---------------------------------------------------------------------------

D
---------------------------------------------------------------------------

A
---------------------------------------------------------------------------

D
---------------------------------------------------------------------------


1:01 – 1:08
Guitar 1 (Not Sure)
e
---------------------------------------------------------------------------

B
---------------------------------------------------------------------------

G
---------------------------------------------------------------------------

D
---------------------------------------------------------------------------

A
---------------------------------------------------------------------------

D
---------------------------------------------------------------------------


Guitar 2 (Not Sure)
e
---------------------------------------------------------------------------

B
---------------------------------------------------------------------------

G
---------------------------------------------------------------------------

D
---------------------------------------------------------------------------

A
---------------------------------------------------------------------------

D
---------------------------------------------------------------------------


1:08 – 1:38
Guitars 1&2				8x
e
---------------------------------------------------------------------------

B
---------------------------------------------------------------------------

G
---------------------------------------------------------------------------

D
--77775733335p0--88-55-33-11-----------------------------------------------

A
-----------------88-55-33-11-----------------------------------------------

D
-----------------88-55-33-11-----------------------------------------------


1:38 – 1:50
Guitar 1					2x
e
---------------------------------------------------------------------------

B
---------------------------------------------------------------------------

G
---------------------------------------------------------------------------

D
--0000-1111-0000-1111-0000-1111-0000-1-3-4-3-1-3---------------------------

A
---------------------------------------------------------------------------

D
---------------------------------------------------------------------------


1:51 – 2:01
Guitar 1					2x
e
---------------------------------------------------------------------------

B
---------------------------------------------------------------------------

G
---------------------------------------------------------------------------

D
---------------------------------------------------------------------------

A
--55555-35653-55555-35653-55555-35653-555555666888-------------------------

D
---------------------------------------------------------------------------


2:02 – 2:23
Guitar 1					4x
e
---------------------------------------------------------------------------

B
---------------------------------------------------------------------------

G
---------------------------------------------------------------------------

D
---------------------------------------------------------------------------

A
--5-5-555-3-5-6-5-5-555-3-5-6-5-5-555-3-5-6-5-555566688--------------------

D
---------------------------------------------------------------------------


2:23 – 3:03
Acoustic Guitar 1
e
---------------------------------------------------------------------------

B
---------------------------------------------------------------------------

G
----2--------2---------3---------3------------2h3p0------------------------

D
-------0--------0---------0----------0-------------------------------------

A
---------------------------------------------------------------------------

D
-0--------0---------0--------0------------0--------------------------------


e
---------------------------------------------------------------------------

B
---------------------------------------------------------------------------

G
-----2---------2--------3--------3---------2h3p0---------------------------

D
---------0--------0--------0--------0--------------------------------------

A
---------------------------------------------------------------------------

D
--0---------0--------0--------0--------0-----------------------------------



e
---------------------------------------------------------------------------

B
---------------------------------------------------------------------------

G
-----0--------0---------0---------0----------------------------------------

D
--------0--------0---------0----------0------------------------------------

A
---------------------------------------------------------------------------

D
--0--------0---------0--------0----------0---------------------------------


e
---------------------------------------------------------------------------

B
---------------------------------------------------------------------------

G
-------2--------2---------3---------3--------------------------------------

D
----------0--------0----------0----------0---------------------------------

A
---------------------------------------------------------------------------

D
---0--------0----------0---------0----------0------------------------------

					2x
e
---------------------------------------------------------------------------

B
---------------------------------------------------------------------------

G
------------------8-7-7-7----------------5/6-5-5-5-------------------------

D
---------------------------------------------------------------------------

A
---5---(5)-(5)----------------3-(3)-(3)------------------------------------

D
---5---(5)-(5)----------------3-(3)-(3)------------------------------------

					4x
e
---------------------------------------------------------------------------

B
---------------------------------------------------------------------------

G
------0----------0---------2------2---------2h3p0--------------------------

D
---------0----------0--------0-------0-------------------------------------

A
---------------------------------------------------------------------------

D
--0---------0----------0-------0---------0---------------------------------


3:05 – 3:23
Guitars 1&2				5x
e
---------------------------------------------------------------------------

B
---------------------------------------------------------------------------

G
---------------------------------------------------------------------------

D
--0-0-0-0-0-0-0-0-0-0-0-0-0-0-0-0-0-6--------------------------------------

A
--0-0-0-0-0-0-0-0-0-0-0-0-0-0-0-0-0-6--------------------------------------

D
--0-0-0-0-0-0-0-0-0-0-0-0-0-0-0-0-0-6--------------------------------------


3:23 – 3:32
Guitars 1&2				4x
e
---------------------------------------------------------------------------

B
---------------------------------------------------------------------------

G
---------------------------------------------------------------------------

D
---------------------------------------------------------------------------

A
---------------------------------------------------------------------------

D
--222-555-666-333----------------------------------------------------------


3:33 – 3:43
Guitars 1&2				4x
e
---------------------------------------------------------------------------

B
---------------------------------------------------------------------------

G
---------------------------------------------------------------------------

D
---------------------------------------------------------------------------

A
---------------------------------------------------------------------------

D
--000000-22222-33333-55555-------------------------------------------------



3:44 – 3:55
Guitars 1&2				4x
e
---------------------------------------------------------------------------

B
---------------------------------------------------------------------------

G
---------------------------------------------------------------------------

D
---------------------------------------------------------------------------

A
--------0------2-------3--------5----5-------------------------------------

D
--000----2222-----3333----5555----55---------------------------------------


3:55 – 4:05
Guitars 1&2				2x
e
---------------------------------------------------------------------------

B
---------------------------------------------------------------------------

G
---------------------------------------------------------------------------

D
-----------------------6-5-3--6-5-3----------------------------------------

A
-----------------------6-5-3--6-5-3----------------------------------------

D
--2222223333333222222--6-5-3--6-5-3----------------------------------------

Pm                       - - -    - -

4:05 – 4:21
Guitar 1 (Not sure about fills)			2x
e
---------------------------------------------------------------------------

B
---------------------------------------------------------------------------

G
---------------------------------------------------------------------------

D
------------------------------------------------------888777---------------

A
------------------5-6-7-8-5-6-7-8------------------------------------------

D
--222333311111-----------------------22222233311111------------------------


4:22- 4:25
Guitar 1					2x
e
---------------------------------------------------------------------------

B
---------------------------------------------------------------------------

G
------99-----99-----55-----77----------------------------------------------

D
---------------------------------------------------------------------------

A
--777----777----333---555--------------------------------------------------

D
---------------------------------------------------------------------------


4:26 – 4:32
Guitars 1&2				2x
e
---------------------------------------------------------------------------

B
---------------------------------------------------------------------------

G
--9-9-9-9-5-5-7-7----------------------------------------------------------

D
---------------------------------------------------------------------------

A
--7-7-7-7-3-3-5-5----------------------------------------------------------

D
---------------------------------------------------------------------------


4:32 – 4:44
Guitars 1&2				4x
e
---------------------------------------------------------------------------

B
---------------------------------------------------------------------------

G
---------------------------------------------------------------------------

D
--9-9999-99-5-55-7-77------------------------------------------------------

A
--9-9999-99-5-55-7-77------------------------------------------------------

D
--9-9999-99-5-55-7-77------------------------------------------------------



4:45 – 4:55
Guitar 1					4x
e
---------------------------------------------------------------------------

B
---------------------------------------------------------------------------

G
---------------------------------------------------------------------------

D
---------------------------------------------------------------------------

A
--9999999-11p999-555-999-777-999-------------------------------------------

D
---------------------------------------------------------------------------


Guitar 2					4x
e
---------------------------------------------------------------------------

B
---------------------------------------------------------------------------

G
---------------------------------------------------------------------------

D
---------------------------------------------------------------------------

A
---------------------------------------------------------------------------

D
---9999999999-555555555-7777777777-----------------------------------------


4:55 – 5:06
Guitars 1&2				4x
e
---------------------------------------------------------------------------

B
---------------------------------------------------------------------------

G
---------------------------------------------------------------------------

D
--9-9------9-9------5-5-----7-7--------------------------------------------

A
--9-9h11p9-9-9h10p9-5-5h7p5-7-7h9p7----------------------------------------

D
--9-9------9-9------5-5-----7-7--------------------------------------------


5:07- 5:12
Guitar 1&2				2x
e
---------------------------------------------------------------------------

B
---------------------------------------------------------------------------

G
---------------------------------------------------------------------------

D
---------------------------------------------------------------------------

A
-7h9p7-7h9p7 7h9p7 7h9p7 3h5p3 3h5p3 5h7p5 9h11p9--------------------------

D
---------------------------------------------------------------------------


5:12 – 5:19
Guitars 1&2				2x
e
---------------------------------------------------------------------------

B
---------------------------------------------------------------------------

G
---------------------------------------------------------------------------

D
---------------------------------------------------------------------------

A
-9h11p9-9h11p9-9h11p9-9h11p9-5h7p5-5h7p5-7h9p7-7h9p7-----------------------

D
---------------------------------------------------------------------------


5:19 – 5:22
Guitar 1
e
---------------------------------------------------------------------------

B
---------------------------------------------------------------------------

G
---------------------------------------------------------------------------

D
-9-999-9-9\----------------------------------------------------------------

A
-9-999-9-9\----------------------------------------------------------------

D
-9-999-9-9\----------------------------------------------------------------



5:23 – 5:44
Guitars 1&2 (Not Sure About this Riff)		2x
e
---------------------------------------------------------------------------

B
---------------------------------------------------------------------------

G
---------------------------------------------------------------------------

D
-9- 9999-5-9-9999-5--------------------------------------------------------

A
-9---------9-----------99999997777555599999977777555-----------------------

D
-9---------9---------------------------------------------------------------


5:45 – 5:56
e
---------------------------------------------------------------------------

B
---------------------------------------------------------------------------

G
---------------------------------------------------------------------------

D
---No Idea-----------------------------------------------------------------

A
---------------------------------------------------------------------------

D
---------------------------------------------------------------------------


5:56 – 6:06
Guitars 1&2
e
---------------------------------------------------------------------------

B
---------------------------------------------------------------------------

G
---------------------------------------------------------------------------

D
---------------------------------------------------------------------------

A
--999999999777777555555--99999999997777755555------------------------------

D
---------------------------------------------------------------------------


6:07- 6:18
Guitars 1&2				4x
e
---
-----------------------------------------------------------------------

B
---
-----------------------------------------------------------------------

G
---
-----------------------------------------------------------------------

D
--0
-0000-0009-9995-5550---------------------------------------------------

A
--0
-0000-0009-9995-5550---------------------------------------------------

D
--0
-0000-0009-9995-5550---------------------------------------------------


6:18 – 6:31
Guitar 1					4x
e
---------------------------------------------------------------------------

B
---------------------------------------------------------------------------

G
---------------------------------------------------------------------------

D
--0000000-33333-55555--6666------------------------------------------------

A
---------------------------------------------------------------------------

D
---------------------------------------------------------------------------


Guitar 2					4x
e
---------------------------------------------------------------------------

B
---------------------------------------------------------------------------

G
---------------------------------------------------------------------------

D
---------------------------------------------------------------------------

A
---------------------------------------------------------------------------

D
-0000000-888888-77777-5555-------------------------------------------------


6:32- 6:45
Guitar 1 (Not Sure)
e
---------------------------------------------------------------------------

B
---------------------------------------------------------------------------

G
---------------------------------------------------------------------------

D
---------------------------------------------------------------------------

A
------9----9---7---5---5---------------------------------------------------

D
--999--999--77--55---5-----------------------------------------------------


Guitar 2
e
---------------------------------------------------------------------------

B
---------------------------------------------------------------------------

G
---------------------------------------------------------------------------

D
---------------------------------------------------------------------------

A
---------------------------------------------------------------------------

D
-00000000-8888888-77777-555555---------------------------------------------


6:57 – 7:25
Guitars 1&2				4x
e
---------------------------------------------------------------------------

B
---------------------------------------------------------------------------

G
---------------------------------------------------------------------------

D
-0---3---6---0---3---6--8--------------------------------------------------

A
-0---3---6---0---3---6--8--------------------------------------------------

D
-0---3---6---0---3---6--8--------------------------------------------------


7:25 – 7:29
Guitar 1 & 2
e
---------------------------------------------------------------------------

B
---------------------------------------------------------------------------

G
------5----5----5----5----5--------5----5----5------555--------------------

D
-----------------------------5---------------------------------------------

A
--33---3----3----3----3---------33----3----3----33--333--------------------

D
---------------------------------------------------------------------------


7:29 – 7:38
Guitar 1&2				2x
e
---------------------------------------------------------------------------

B
---------------------------------------------------------------------------

G
-----5------5----5----5-----5--------5-----5-------------------------------

D
-------------------------------5---------------8--6--3---------------------

A
-33----3-----3----3-----3---------33----3------8--6--3---------------------

D
-----------------------------------------------8--6--3---------------------


7:38 – 7:48
Guitars 1&2
e
---------------------------------------------------------------------------

B
---------------------------------------------------------------------------

G
---------------------------------------------------------------------------

D
------5----5---5----5----5-----5---8-6-3-----------------------------------

A
---333--333-333--333--333--333-----8-6-3-----------------------------------

D
-----------------------------------8-6-3-----------------------------------



7:49 – 8:02  The order of this part is really hard to figure out
Guitar 1       so this is the closest I could get.
e
---------------------------------------------------------------------------

B
---------------------------------------------------------------------------

G
---------------------------------------------------------------------------

D
---------------------------------------------------------------------------

A
-5p0-8p0-7p0-3p0-7p0-5p0-3p0-5p0-3p0-5p0-7p0-3p0-5p0-7p0-5p0-3p0-----------

D
---------------------------------------------------------------------------


8:02 – 8:16
Guitar 1&2
e
---------------------------------------------------------------------------

B
---------------------------------------------------------------------------

G
---------------------------------------------------------------------------

D
-------2-------3-2-0---------3-5--------2-------3-2-0--------3-5-3---------

A
-0-3-5---5-3-0--------3-2-0--3-5--0-3-5---5-3-0-------3-2-0--3-5-3---------

D
-----------------------------3-5-----------------------------3-5-3---------


8:16 – 8:29
Guitar 1
e
---------------------------------------------------------------------------

B
---------------------------------------------------------------------------

G
---------------------------------------------------------------------------

D
-000000--------------000000-------3-5-6------------------------------------

A
-000000-3-5-6--6-5-3-000000-3-5-6------------------------------------------

D
-000000--------------000000------------------------------------------------


e
---------------------------------------------------------------------------

B
---------------------------------------------------------------------------

G
---------------------------------------------------------------------------

D
-000000---------------6-5-3------------------------------------------------

A
-000000-3-5-6--6-5-3---------6-5-3--6-5-3--3-2-0---------------------------

D
-000000--------------------------------------------------------------------


e
---------------------------------------------------------------------------

B
---------------------------------------------------------------------------

G
---------------------------------------------------------------------------

D
-000000--------------000000-------3-5-6------------------------------------

A
-000000-3-5-6--6-5-3-000000-3-5-6------------------------------------------

D
-000000--------------000000------------------------------------------------


e
---------------------------------------------------------------------------

B
---------------------------------------------------------------------------

G
---------------------------------------------------------------------------

D
-000000---------------6-5-3--------6-5-3-----------------------------------

A
-000000-3-5-6--6-5-3---------6-5-3--------6-5-3----------------------------

D
-000000--------------------------------------------------------------------



8:29 – 8:38
Guitars 1&2					2x
e
---------------------------------------------------------------------------

B
---------------------------------------------------------------------------

G
---------------------------------------------------------------------------

D
----------55555-1111111----------------------------------------------------

A
-33333---------------------------------------------------------------------

D
------------------------------6666666666666666-----------------------------


8:38 – 8:48
Guitars 1&2
e
---------------------------------------------------------------------------

B
---------------------------------------------------------------------------

G
---------------------------------------------------------------------------

D
----------55555-11111------------------------------------------------------

A
-33333---------------------------555555-666666-----------------------------

D
---------------------------66666-------------------------------------------


8:48 – 9:08
Guitars 1 & 2
e
---------------------------------------------------------------------------

B
---------------------------------------------------------------------------

G
---------------------------------------------------------------------------

D
----------------------0-22-0-232-0-----------------------------------------

A
----------------------0-22-0-232-0-----------------------------------------

D
-333333-666666-222222-0-22-0-232-0-----------------------------------------


e
---------------------------------------------------------------------------

B
---------------------------------------------------------------------------

G
---------------------------------------------------------------------------

D
----------------------------------666666-555555--3333333-------------------

A
---------------------------------------------------------------------------

D
-3333333-666666-222222-----------------------------------------------------


e
---------------------------------------------------------------------------

B
---------------------------------------------------------------------------

G
---------------------------------------------------------------------------

D
-----------------------0-22-0-232-0----------------------------------------

A
-----------------------0-22-0-232-0----------------------------------------

D
-3333333-666666-222222-0-22-0-232-0----------------------------------------


e
---------------------------------------------------------------------------

B
---------------------------------------------------------------------------

G
---------------------------------------------------------------------------

D
----------------------------------666666-555555-333333---------------------

A
---------------------------------------------------------------------------

D
-333333-666666-2222222-----------------------------------------------------


9:08 – 9:18
Guitars 1&2				4x
e
---------------------------------------------------------------------------

B
---------------------------------------------------------------------------

G
---------------------------------------------------------------------------

D
----------555555-1111111---------------------------------------------------

A
-33333--------------------------------55555-666666-------------------------

D
-------------------------------666666--------------------------------------


9:18 – 9:24 Guitars 1&2 play alternately
Guitar 1
e
---------------------------------------------------------------------------

B
---------------------------------------------------------------------------

G
-9-----------9------------7-----------5------------4-----------------------

D
-9-----------9------------7-----------5------------4-----------------------

A
-7-----------7------------5-----------3------------2-----------------------

D
---------------------------------------------------------------------------


Guitar 2 (Tremolo Picking)
e
---------------------------------------------------------------------------

B
---------------------------------------------------------------------------

G
----------------7----------------------------------------------------------

D
---9-10-9---------9-10-------9-10-9------7----7----------------------------

A
-------------------------------------------10------------------------------

D
---------------------------------------------------------------------------


9:25 – 9:35
Guitar 1 (Tremolo picking)			2x
e
---------------------------------------------------------------------------

B
---------------------------------------------------------------------------

G
----------7----------------------------------------------------------------

D
-7-9-10-7----9-10-9------10-9-10------7------7-----------------------------

A
----------------------10-----------8-----10--------------------------------

D
---------------------------------------------------------------------------


Guitar 2
e
---------------------------------------------------------------------------

B
---------------------------------------------------------------------------

G
---------------------------------------------------------------------------

D
---------------------------------------------------------------------------

A
---------------------------------------------------------------------------

D
-777777777-55555555555--33333333-------------------------------------------


9:35 – 9:44
Guitar 1					2x
e
---------------------------------------------------------------------------

B
---------------------------------------------------------------------------

G
---------------------------------------------------------------------------

D
---------------------------------------------------------------------------

A
-2--------3---------5---------7--------------------------------------------

D
-222222222333333333355555555557--------------------------------------------


Guitar 2 Not too sure about this			2x
e
---------------------------------------------------------------------------

B
---------------------------------------------------------------------------

G
----------------------------------------------------3p2p0h2p0--------------

D
---------------------------------------------------------------3p0---------

A
---------------------------------------------------------------------------

D
---------------------------------------------------------------------------




9:45 – 9:54
Guitar 1
e
---------------------------------------------------------------------------

B
---------------------------------------------------------------------------

G
----------7----------------------------------------------------------------

D
-7-9-10-7----9-10-9-------10-9-10-----7-----7------------------------------

A
---------------------10------------8----10---------------------------------

D
---------------------------------------------------------------------------


Guitar 2
e
---------------------------------------------------------------------------

B
---------------------------------------------------------------------------

G
---------------------------------------------------------------------------

D
---------------------------------------------------------------------------

A
---------------------------------------------------------------------------

D
---777777777-555555555-3333333333------------------------------------------


9:55 – 10:02
Guitar 1					2x
e
---------------------------------------------------------------------------

B
---------------------------------------------------------------------------

G
---------------------------------------------------------------------------

D
---------------------------------------------------------------------------

A
-2--------3---------5---------7--------------------------------------------

D
-222222222333333333355555555557--------------------------------------------


Guitar 2 Not too sure about this again		2x
e
---------------------------------------------------------------------------

B
---------------------------------------------------------------------------

G
----------------------------------------------------3p2p0h2p0--------------

D
--------------------------------------------------------------3p0----------

A
---------------------------------------------------------------------------

D
---------------------------------------------------------------------------


10:03 – 10:21
Guitar 1					4x
e
---------------------------------------------------------------------------

B
---------------------------------------------------------------------------

G
---------------------------------------------------------------------------

D
-----------------------------------8-------9-------------------------------

A
-----------------------------------8-------9-------------------------------

D
--888-777-555-777-888-777-555-777--8-88888-9-------------------------------


10:21 – 10:31
Guitar 1					2x
e
---------------------------------------------------------------------------

B
---------------------------------------------------------------------------

G
---------------------------------------------------------------------------

D
---------------------------------------------------------------------------

A
---------------------------------------------------------------------------

D
-55555-10101010-88888-7777-55555-10101010-7777-3333------------------------


Guitar 2 					2x
e
---------------------------------------------------------------------------

B
---------------------------------------------------------------------------

G
---------------------------------------------------------------------------

D
---------------------------------------------------------------------------

A
--10101010101010101010101010101010101010101010-----------------------------

D
---------------------------------------------------------------------------


10: 31 – 10:50
Guitar 1					4x
e
---------------------------------------------------------------------------

B
---------------------------------------------------------------------------

G
---------------------------------------------------------------------------

D
-----------------------------------8-------9-------------------------------

A
-----------------------------------8-------9-------------------------------

D
--888-777-555-777-888-777-555-777--8-88888-9-------------------------------


10:50 – 11:00
Guitar 1					2x
e
---------------------------------------------------------------------------

B
---------------------------------------------------------------------------

G
---------------------------------------------------------------------------

D
---------------------------------------------------------------------------

A
---------------------------------------------------------------------------

D
-55555-10101010-88888-7777-55555-10101010-7777-3333------------------------


Guitar 2 					2x
e
---------------------------------------------------------------------------

B
---------------------------------------------------------------------------

G
---------------------------------------------------------------------------

D
---------------------------------------------------------------------------

A
--10101010101010101010101010101010101010101010-----------------------------

D
---------------------------------------------------------------------------


11:00 – 11:18
Guitar 1(Tremolo Picking) Not Sure		4x
e
---------------------------------------------------------------------------

B
---------------------------------------------------------------------------

G
---------------------------------------------------------------------------

D
-5-7-8-7---3-5-6-5---0-2-3-2-3-2-3-0---------------------------------------

A
---------------------------------------------------------------------------

D
---------------------------------------------------------------------------


Guitar 2					4x
e
---------------------------------------------------------------------------

B
---------------------------------------------------------------------------

G
---------------------------------------------------------------------------

D
---------------------------------------------------------------------------

A
--88888888888--77777777777--5555555555-------------------------------------

D
---------------------------------------------------------------------------


End Chords
e
---------------------------------------------------------------------------

B
---------------------------------------------------------------------------

G
---------------------------------------------------------------------------

D
-8---00--------------------------------------------------------------------

A
-8---00--------------------------------------------------------------------

D
-8---00--------------------------------------------------------------------


Thank you to EmilyO1991, and the others who attempted to tab out
The song for their help and ideas.



  
 repeat from

 /  slide up

 \  slide down

 h  hammer-on

 p  pull-off

 ~  vibrato

 +  harmonic

 x  Mute note
===============================================================================
 


/
How To Set Up Higher Praise As Your Home Page
Copyright 1999, Higher Praise HigherPraise,Inc. All rights reserved. Terms of Use

Enjoy A Life Changing Experience

 
 
 
HigherPraise, Higher Praise, HigherPraise, Higher Praise, HigherPraise

Members..Sign Up. LogIn

 
 

Higher Praise Other Sites
 
 

HigherPraise.org/
Praise And Worship
www.higherpraise.org

HigherPraise.net
Christian Resources
www.higherpraise.net

HigherPraiseTube.com
Videos And Audios
www.higherpraisetube.com.


ChristianLyrics.org

Lyrics And Chrords
www.christianlyrics.org

ChristianChordsLyrics

Lyrics And Chrords
www.christianchordslyrics.com

ChristianChordLyrics

Lyrics And Chrords
www.christianchordlyrics.com

WorshipLyrics.org
10.000 Illustrations
www.worshiplyrics.org

WorshipLyrics.net
10.000 Illustrations
www.worshiplyrics.net

PraiseLyrics.com
PowerPoint Lyrics

www.praiselyrics.com

PraiseLyrics.org
PowerPoint Lyrics

www.praiselyrics.org

1GodTube.com
Chistian Videos

www1godtube..com

OneGodTube.com
Chistian Videos

www.onegodtube..com

 

/
© Copyright 1999 - 2019, Higher Praise™ HigherPraise™,Inc. All rights reserved. Terms of Use