Higher Praise - Guitar Chords, Lyrics  GuitarTabs -  Praise nad Worship Music And Christian Songs

Higher Praise - Guitar Tabs, Guitar Chords, Lyrics
   Lyrics, Chords And Tabs
   Popular Lyrics Chords Tab
   Power Point Lyrics
   Praise & Worship Music
   Christian Music Videos
   15900 Videos & Audios
   Midi Files
   Worship Questions
   Christmas Chords, Lyrics
   Lyrics, Chords Tabs Rated

Sermon Outlines And Audio Sermons
   9344 Sermon Outlines
   N.T. Sermon Outlines
   O.T. Sermon Outlines
   Special Guest Outlines
   10.000 Illustrations
   Sunday School Studies
   Bible College Studies
   Greatest Preachers
   Bible Research Tools
Audio Sermons
   2895 Audio Sermons
   85 Sermon Videos
   291 Special Guests Serm

   Complete Audio Bible
Higher Praise Sunday School Teaching
   Children's NT Studies
   Children's OT Studies

   98 Children's Midis
   Gospel For Kids Movie
   Children's JESUS Film
Higher Praise Christian Video Library ,Videos
   Christian Television
   TBN TV Live
   15,000 Videos - HP Tube
   712 Youth Music Vids
  Christian Video Library
   Praise Videos #1 & #2
   85 Sermon Videos
   Prophecy Film -Videos
   JESUS Film -Video
   Childrens JESUS Film
   Gospel For Kids Movie
   Passion Of The Christ
   Noah, Sodom, Sinai, Ark
   Tsunami Videos Photos
News And Information
   Testimonies
   Submit Lyrics, Tabs, Serm
   10.000 Illustrations
   Bible College Course
   Clipart & Web Graphics
   Greatest Preachers
   Complete Talking Bible
   Christian Chat Rooms
   Links Church Resource
   HP Statement Of Faith
Download Clipart
   Audio Sermons
   Clipart & Web Graphics
   Church Administration
   Bible Study Software
   Screen Savers Software
   Verse A Day Software
   Educational Games
   Trade Center Photos

   Soft. Search Engine
Higher Praise News
   Current News
    Archived News
   Submit News
   Newsletter   Higher Praise Interact Prayer
   Prayer For All Needs
   
Submit Lyrics, Sermons
   
Contact Higher Praise
   
Advertising 
   Privacy Policy
//
He Died For You,  Click For Answer! This Is Who Jesus Is Video

'
 
0-9 A B C D E F G H I J K L M N O P Q R S T U V W X Y Z
.

//
Click For Printable...Version Of This File
 

Exit


by U2




#----------------------------------PLEASE NOTE---------------------------------#
#This file is the author's own work and represents their interpretation of the #
#song. You may only use this file for private study, scholarship, or research. #
#------------------------------------------------------------------------------##

Subject: U2 - EXIT (live version)


	This, as opposed to the version archived at NEVADA is closer to the
live recording as performed on the 'Rattle & Hum' video. If anyone knows how
to post to NEVADA, could they please do that to this posting.


	EXIT - U2

BASS INTRO

A--7-7-7-7-7-7-7-7
-7-7-7-7-7-7-7-7
--3-3-3-3-3-3-3-3
--

A--10-10-10-10-10-10-10-10--
(continue this pattern throughout song)


Edges part (including intro)
-> begin this after playing bass pattern twice - in fact comes in half way
through the last bar (the G's on fret 10)


 (trip.)	    (trip.)
e-------
---
------------
--
-----

B-------
---
------------
--
-----

G-------
---
------------
--
-----

D--9-8-7
---
------------
--
-----

A-------
-10__10--9-10-9-
-7__7---

E-------
---
------------
--
-----


  (harm.)
e--------------------------------------------

B--------------------------------------------

G--------------------------------------------

D------12------12----12-----12---12---12-----

A--12------12------12----12----12---12--12---

E--------------------------------------------


e-----------------------------------------------

B-----------------------------------------------

G-----------------------------------------------

D-----------------------------------------------

A-----------------------------------------------

E---0-0---------------------0-0-----------------



Verse:


You know he got the cure, you know he went astray, he used to
stay awake to drive the dreams he had a way

(harm.)					(not harm.)
e-----------------------------------------------------

B--------------------------------------------(trip.)--

G-----------------------------------------------------

D------12------12-----12-----12----12--------9-8-7----

A--12------12------12-----12----12----12--------------

E-----------------------------------------------------


   He wanted to believe			in the hands of love
e-----------------------------------------------------

B-----------------------------------------------------

G-----------------------------------------------------

D-----------------------------------------------------

A--10--------------------------9-10-9-7---------------

E-----------------------------------------------------



the hands of    Love
	     (P.M - now and again)
e---------------------------------------------

B---------------------------------------------
       (repeat this rhythm throughout
G------------------9-X-------9-9-X------------
        rest of song, keeping basic Em,
D---------------------------------------------
        and ad.lib. this pattern for
A-------------7-7-------7-7-------------------
        Edge's wild solo section -noise)
E---------------------------------------------


**Strumming pattern for rhythm shown above**
	The effect can be gained by holding the pick with only about 1
millimetre clearance between the pick and the index finger. Instead of
actually plucking, hit the string at about a 45 degree angle - don't worry
if the string doesn't really sound, Edge doesn't seem to. What you're
basically doing is thumping the strings for all they're worth, and
expecting a far from clean sound.


	-If more help is needed on this, such as "what the hell is this guy
talking about", mail me, and I'll be happy to oblige.
 


/
How To Set Up Higher Praise As Your Home Page
Copyright 1999, Higher Praise HigherPraise,Inc. All rights reserved. Terms of Use

Enjoy A Life Changing Experience

 
 
 
HigherPraise, Higher Praise, HigherPraise, Higher Praise, HigherPraise

Members..Sign Up. LogIn

 
 

Higher Praise Other Sites
 
 

HigherPraise.org/
Praise And Worship
www.higherpraise.org

HigherPraise.net
Christian Resources
www.higherpraise.net

HigherPraiseTube.com
Videos And Audios
www.higherpraisetube.com.


ChristianLyrics.org

Lyrics And Chrords
www.christianlyrics.org

ChristianChordsLyrics

Lyrics And Chrords
www.christianchordslyrics.com

ChristianChordLyrics

Lyrics And Chrords
www.christianchordlyrics.com

WorshipLyrics.org
10.000 Illustrations
www.worshiplyrics.org

WorshipLyrics.net
10.000 Illustrations
www.worshiplyrics.net

PraiseLyrics.com
PowerPoint Lyrics

www.praiselyrics.com

PraiseLyrics.org
PowerPoint Lyrics

www.praiselyrics.org

1GodTube.com
Chistian Videos

www1godtube..com

OneGodTube.com
Chistian Videos

www.onegodtube..com

 

/
Copyright 1999 - 2019, Higher Praise™ HigherPraise™,Inc. All rights reserved. Terms of Use