Higher Praise - Guitar Chords, Lyrics  GuitarTabs -  Praise nad Worship Music And Christian Songs

Higher Praise - Guitar Tabs, Guitar Chords, Lyrics
   Lyrics, Chords And Tabs
   Popular Lyrics Chords Tab
   Power Point Lyrics
   Praise & Worship Music
   Christian Music Videos
   15900 Videos & Audios
   Midi Files
   Worship Questions
   Christmas Chords, Lyrics
   Lyrics, Chords Tabs Rated

Sermon Outlines And Audio Sermons
   9344 Sermon Outlines
   N.T. Sermon Outlines
   O.T. Sermon Outlines
   Special Guest Outlines
   10.000 Illustrations
   Sunday School Studies
   Bible College Studies
   Greatest Preachers
   Bible Research Tools
Audio Sermons
   2895 Audio Sermons
   85 Sermon Videos
   291 Special Guests Serm

   Complete Audio Bible
Higher Praise Sunday School Teaching
   Children's NT Studies
   Children's OT Studies

   98 Children's Midis
   Gospel For Kids Movie
   Children's JESUS Film
Higher Praise Christian Video Library ,Videos
   Christian Television
   TBN TV Live
   15,000 Videos - HP Tube
   712 Youth Music Vids
  Christian Video Library
   Praise Videos #1 & #2
   85 Sermon Videos
   Prophecy Film -Videos
   JESUS Film -Video
   Childrens JESUS Film
   Gospel For Kids Movie
   Passion Of The Christ
   Noah, Sodom, Sinai, Ark
   Tsunami Videos Photos
News And Information
   Testimonies
   Submit Lyrics, Tabs, Serm
   10.000 Illustrations
   Bible College Course
   Clipart & Web Graphics
   Greatest Preachers
   Complete Talking Bible
   Christian Chat Rooms
   Links Church Resource
   HP Statement Of Faith
Download Clipart
   Audio Sermons
   Clipart & Web Graphics
   Church Administration
   Bible Study Software
   Screen Savers Software
   Verse A Day Software
   Educational Games
   Trade Center Photos

   Soft. Search Engine
Higher Praise News
   Current News
    Archived News
   Submit News
   Newsletter   Higher Praise Interact Prayer
   Prayer For All Needs
   
Submit Lyrics, Sermons
   
Contact Higher Praise
   
Advertising 
   Privacy Policy
//
He Died For You,  Click For Answer! This Is Who Jesus Is Video

'
 
0-9 A B C D E F G H I J K L M N O P Q R S T U V W X Y Z
.

//
Click For Printable...Version Of This File
 

Mad Russians Christmas


by Trans-siberian Orchestra




This is a sweet song located on Christmas Eve and Other Stories.  Have fun with this one
Standard Tuning
(.19) (.29) (.33)
E---------------------------------------------

B---------------------------------------------

G---------------------------------------------

D---------------------------------------------

A-2-2--2-2--5-5-<5>-4-4-<4>-3-3-<3>-2p0-----2-

E-0-0--0-0------------------------------3-2-0-

    *    *  * *     * *     * *         * *
(.42)       (.47)       (.52)
E------------------------------------------------

B------------------------------------------------

G------------------------------------------------

D------------------------------------------------

A-2p0-----2--1b2p0-----2-5-5-<5>-4-4-<4>-3-3-----
3>
E-----3-2-0--------3-2-0-------------------------

      * *          * *   * *     * *     * *
Continued from the bar above (1.05)
E-----------------------------------------

B-----------------------------------------

G-----------------------------------------

D---2---2---2p0---------------------------

A-2---3---2-----3-2-1-0-----(2-3-2-3-2-3)-

E-----------------------3-2---------------

  * * * *                    * * * * * *
(played very soft)
This part im not sure if these are the right chords
(1.14)              (1.21)
E-------------------------------------------

B-------------------------------------------

G-------------------------------------------

D-----5--7\5-----------5-5-7\5------------5-

A-----5--7\5-[555]x7-5-5-5-7\5-[555]x31-5-5-

E-<7>\3--5\3-[333]---3-3-3-5\3-[333]----3-3-

              xxx    *          xxx     *
Im not sure if this is played like this but its close
E-------------------------------------------------

B-------------------------------------------------

G-----------------0-------------------------------

D-------000-2-444---444-2-000-2-000---------------

A-222-4-----------------------------4-222-0-222-0-

E-------------------------------------------------


1st Gtr comes in here
(1.44)
E-19b21r19p17----------------22b24r22-----

B-------------19-15b17r15-14----------19--

G-----------------------------------------

D-----------------------------------------

A-----------------------------------------

E-----------------------------------------

(2.06)
E----------------------------------

B----------------------------------

G-7-----6-----7-----6-----<6~>-----

D---7-5---7-5---7-5---7-5----(7-5)-

A----------------------------------

E----------------------------------

    * *   * *   * *   * *
Repeats 4 times, on last time hit 4 after the (7-5)
Then this riff plays a few times
E-------------------------------------------------

B-------------------------------------------------

G-----------------0-------------------------------

D-------000-2-444---444-2-000-2-000---------------

A-222-4-----------------------------4-222-0-222-0-

E-------------------------------------------------

All Palm Muted
(2.58)
E---------------(14b15)--------------

B---------------(16b17)--------------

G----------------------------------4-

D-5-------5------------------------4-

A-5-5-5-5-5-5-5-5-2-2-2-2-2--2-2-2-2-

E-3-3-3-3-3-3-3-3-0-0-0-0-0--0-0-0---

    * * *   * * *   * * * *  * * *
(play either one, i dont know if its 2 gtrs or 1)
(3.34)
E-----------------

B-----------------

G-----------------

D-----5-7-5-------

A-
5
-5-7-5-[555--
x8
E-
3
-3-5-3-[333--

             xxx
(3.43)
E----------------------15-151515-15-12-------12-

B----------------12h14-----------------15-13----

G-------11h12h14--------------------------------

D-12h14-----------------------------------------

A-----------------------------------------------

E-----------------------------------------------

 
___Tremelo Pick_____

continued from above
E-----------------------------------------------------

B-15-151515-15-12------12-------------12~-------------

G-----------------14-12---14~12~11~14~---14~12---12\7-

D---------------------------------------------12------

A-----------------------------------------------------

E-----------------------------------------------------

(3.55)
E-------------------------------------------------------

B-------------------------------------------------------

G--------------------------------------------11-11-11---

D------------------------------------11h12h14--------12-

A-9p7p5-10p9p7-12p10p9-14p12p10-12h14-------------------

E-------------------------------------------------------

(3.58)
E-------------------------------------

B-------------------------------------

G-11-12-------14-12-11-------11-12-14-

D-------12-------------12-14----------

A----------14-------------------------

E-------------------------------------

(4.04)
E------------------------------------

B-------------------------12h14-15\3-

G----------------11h12h14------------

D-------11h12h14---------------------

A-12h14------------------------------

E------------------------------------

(4.06)
E------------------------------------

B----------------------131313-131313-

G------------------------------------

D-999-111111-121212-x2---------------

A------------------------------------

E------------------------------------

(4.11)
E-------------------------------12-15-17-

B-------------------------12h14----------

G----------------11h12h14----------------

D-------11h12h14-------------------------

A-12h14----------------------------------

E----------------------------------------


E-15-151515-15-12------12-----------------------

B-----------------15-13---15-151515-15-12-------

G-----------------------------------------14-12-

D-----------------------------------------------

A-----------------------------------------------

E-----------------------------------------------


E------------------------------

B-12------------12~------------

G----14~12~11~14~--12-14-12-14-

D------------------------------

A------------------------------

E------------------------------

(4.20)
E-15-151515-15-12-------12-----------------------

B-----------------15-13----15-151515-15-12-------

G------------------------------------------14-12-

D------------------------------------------------

A------------------------------------------------

E------------------------------------------------


E--------------------------------------------------

B-12------------12~-----12~-----------12~------12~-

G---14~12~11~14~---14~12~--14~12~11~14~--14~12~----

D--------------------------------------------------

A--------------------------------------------------

E--------------------------------------------------

(4.30) This is the simplified way
E--------------------------------------------------15-

B----13-12-------13-12---------------------------15---

G-14-------12-14-------12-14-12-14-12-14-12-14-12-----

D-----------------------------------------------------

A-----------------------------------------------------

E-----------------------------------------------------

(4.30) The way I think it really is played more complex
E-----------------------------------

B---------13p12p10-12p10------------

G-14p12p11---------------12-12p9----

D--------------------------------12-

A-----------------------------------

E-----------------------------------

Repeat once, those are triplets, then..
E------------------------------------15-

B---------------------------------15----

G-14p12p11-12---------14p12p11-12-------

D-------------14p12---------------------

A---------------------------------------

E---------------------------------------

Repeat this twice then..^

^KEY^
~ = Vibro/Tremelo
* = Palm Mute
p = pull-off
h = hammer-on
<> = Artificial Harmonic
x = dead note
/\ = slide up/down
# = Let note gain feedback

 = fade in with volume/possible delay
1b2 = 1/2 bend
1b3 = full bend
17b19r17 = full bend then release

Thats all, this is a sweet song.  This should be close to perfect, but there may be some
things in the quicker parts i couldn't hear.  Rock on and Enjoi.  Questions or comments


*Revision Soon
 


/
How To Set Up Higher Praise As Your Home Page
Copyright 1999, Higher Praise HigherPraise,Inc. All rights reserved. Terms of Use

Enjoy A Life Changing Experience

 
 
 
HigherPraise, Higher Praise, HigherPraise, Higher Praise, HigherPraise

Members..Sign Up. LogIn

 
 

Higher Praise Other Sites
 
 

HigherPraise.org/
Praise And Worship
www.higherpraise.org

HigherPraise.net
Christian Resources
www.higherpraise.net

HigherPraiseTube.com
Videos And Audios
www.higherpraisetube.com.


ChristianLyrics.org

Lyrics And Chrords
www.christianlyrics.org

ChristianChordsLyrics

Lyrics And Chrords
www.christianchordslyrics.com

ChristianChordLyrics

Lyrics And Chrords
www.christianchordlyrics.com

WorshipLyrics.org
10.000 Illustrations
www.worshiplyrics.org

WorshipLyrics.net
10.000 Illustrations
www.worshiplyrics.net

PraiseLyrics.com
PowerPoint Lyrics

www.praiselyrics.com

PraiseLyrics.org
PowerPoint Lyrics

www.praiselyrics.org

1GodTube.com
Chistian Videos

www1godtube..com

OneGodTube.com
Chistian Videos

www.onegodtube..com

 

/
Copyright 1999 - 2019, Higher Praise™ HigherPraise™,Inc. All rights reserved. Terms of Use