Higher Praise - Guitar Chords, Lyrics  GuitarTabs -  Praise nad Worship Music And Christian Songs

Higher Praise - Guitar Tabs, Guitar Chords, Lyrics
   Lyrics, Chords And Tabs
   Popular Lyrics Chords Tab
   Power Point Lyrics
   Praise & Worship Music
   Christian Music Videos
   15900 Videos & Audios
   Midi Files
   Worship Questions
   Christmas Chords, Lyrics
   Lyrics, Chords Tabs Rated

Sermon Outlines And Audio Sermons
   9344 Sermon Outlines
   N.T. Sermon Outlines
   O.T. Sermon Outlines
   Special Guest Outlines
   10.000 Illustrations
   Sunday School Studies
   Bible College Studies
   Greatest Preachers
   Bible Research Tools
Audio Sermons
   2895 Audio Sermons
   85 Sermon Videos
   291 Special Guests Serm

   Complete Audio Bible
Higher Praise Sunday School Teaching
   Children's NT Studies
   Children's OT Studies

   98 Children's Midis
   Gospel For Kids Movie
   Children's JESUS Film
Higher Praise Christian Video Library ,Videos
   Christian Television
   TBN TV Live
   15,000 Videos - HP Tube
   712 Youth Music Vids
  Christian Video Library
   Praise Videos #1 & #2
   85 Sermon Videos
   Prophecy Film -Videos
   JESUS Film -Video
   Childrens JESUS Film
   Gospel For Kids Movie
   Passion Of The Christ
   Noah, Sodom, Sinai, Ark
   Tsunami Videos Photos
News And Information
   Testimonies
   Submit Lyrics, Tabs, Serm
   10.000 Illustrations
   Bible College Course
   Clipart & Web Graphics
   Greatest Preachers
   Complete Talking Bible
   Christian Chat Rooms
   Links Church Resource
   HP Statement Of Faith
Download Clipart
   Audio Sermons
   Clipart & Web Graphics
   Church Administration
   Bible Study Software
   Screen Savers Software
   Verse A Day Software
   Educational Games
   Trade Center Photos

   Soft. Search Engine
Higher Praise News
   Current News
    Archived News
   Submit News
   Newsletter   Higher Praise Interact Prayer
   Prayer For All Needs
   
Submit Lyrics, Sermons
   
Contact Higher Praise
   
Advertising 
   Privacy Policy
//
He Died For You,  Click For Answer! This Is Who Jesus Is Video

'
 
0-9 A B C D E F G H I J K L M N O P Q R S T U V W X Y Z
.

//
Click For Printable...Version Of This File
 

Gone


by Tobymac




Artist:        Tobymac
Song:          Burn For You (Live in Dallas)
Album:         Alive and Transported

Profile Name:  geckio007
Tuning:        Drop D


I didn't feel like figuring out the strum pattern for the chorus, but I gave 
the chords.  I love the Alive and Transported album by Tobymac you can really
hear what the guitar is doing.  Here's the tab.  It's probably the most
accurate tab you are going to get for this song minus the strum patterns.  I
do the best I can with strum patterns but sometimes it's too time consuming to
tab and its just easier to listen to the song.  Enough of my typing, here's
the tab:

This song is pretty simply.  At then they just play the chorus over and over
in different strum patterns, sometimes with P.M., sometimes without.  Just
listen to the song to get it right.


Legend:

h     hit on
p     pull off
^     bend
/     slide to higher note
\     slide to lower note
~     tremelo
P.M.  Palm Muting



Verse 1:



----------------------------------

-------3------6------1------------

-----2------5---------------4/5---

--0------3---------3------2-------

----------------1------0----------

----------------------------------



-----------------------------------------------------------------------

-----------------------------------------------------------------------

-----------------------------------------------------------------------

------10-------10-------10-------3-------10-------10------3-------3----

----8----8---8----8---8----8---3---3---8----8---8---8---3---3---3---3--

--8--------8--------8--------3-------8--------8-------3-------3--------



--------------------------------------------------------------------------

--------------------------------------------------------------------------

--------------------------------------------------------------------------

------10-------10-------10-------3-------10-------10---3-3-3-3-3-3-3------

----8----8---8----8---8----8---3---3---8----8---8----8-3-3-3-3-3-3-3------

--8--------8--------8--------3-------8--------8--------3-3-3-3-3-3-3------



Chorus:


--------------

--------------

--------------

--0--3--8--7--

--0--3--8--7--

--0--3--8--7--



Verse 2:

P.M...   .....   .................

-----------------------------------

-----------------------------------

-----------------------------------

------7-------7--------------------

--5-5---5-8-8---8-----8-------7----

------------------8-8---8-7-7---7--
 x7

P.M...   .....   .

---------------------

---------------------

---------------------

------7-------7---8--

--5-5---5-8-8---8-8--

------------------8--



--------------------------------------

--------------------------------------

--------------------------------------

--0----3--8----7--0----3--8----7-6-5--

--0----3--8----7--0----3--8----7-6-5--

--0----3--8----7--0----3--8----7-6-5--


P.M.               .........

-------------------------------------

-------------------------------------

-------------------------------------

--0----3--8----7--0-0-0-0-0-3-3-3-8--

--0----3--8----7--0-0-0-0-0-3-3-3-8--

--0----3--8----7--0-0-0-0-0-3-3-3-8--



End with:

P.M...

---------

---------

---------

--0-0-0--

--0-0-0--

--0-0-0--

 


/
How To Set Up Higher Praise As Your Home Page
Copyright 1999, Higher Praise HigherPraise,Inc. All rights reserved. Terms of Use

Enjoy A Life Changing Experience

 
 
 
HigherPraise, Higher Praise, HigherPraise, Higher Praise, HigherPraise

Members..Sign Up. LogIn

 
 

Higher Praise Other Sites
 
 

HigherPraise.org/
Praise And Worship
www.higherpraise.org

HigherPraise.net
Christian Resources
www.higherpraise.net

HigherPraiseTube.com
Videos And Audios
www.higherpraisetube.com.


ChristianLyrics.org

Lyrics And Chrords
www.christianlyrics.org

ChristianChordsLyrics

Lyrics And Chrords
www.christianchordslyrics.com

ChristianChordLyrics

Lyrics And Chrords
www.christianchordlyrics.com

WorshipLyrics.org
10.000 Illustrations
www.worshiplyrics.org

WorshipLyrics.net
10.000 Illustrations
www.worshiplyrics.net

PraiseLyrics.com
PowerPoint Lyrics

www.praiselyrics.com

PraiseLyrics.org
PowerPoint Lyrics

www.praiselyrics.org

1GodTube.com
Chistian Videos

www1godtube..com

OneGodTube.com
Chistian Videos

www.onegodtube..com

 

/
Copyright 1999 - 2019, Higher Praise™ HigherPraise™,Inc. All rights reserved. Terms of Use