Higher Praise - Guitar Chords, Lyrics  GuitarTabs -  Praise nad Worship Music And Christian Songs

Higher Praise - Guitar Tabs, Guitar Chords, Lyrics
   Lyrics, Chords And Tabs
   Popular Lyrics Chords Tab
   Power Point Lyrics
   Praise & Worship Music
   Christian Music Videos
   15900 Videos & Audios
   Midi Files
   Worship Questions
   Christmas Chords, Lyrics
   Lyrics, Chords Tabs Rated

Sermon Outlines And Audio Sermons
   9344 Sermon Outlines
   N.T. Sermon Outlines
   O.T. Sermon Outlines
   Special Guest Outlines
   10.000 Illustrations
   Sunday School Studies
   Bible College Studies
   Greatest Preachers
   Bible Research Tools
Audio Sermons
   2895 Audio Sermons
   85 Sermon Videos
   291 Special Guests Serm

   Complete Audio Bible
Higher Praise Sunday School Teaching
   Children's NT Studies
   Children's OT Studies

   98 Children's Midis
   Gospel For Kids Movie
   Children's JESUS Film
Higher Praise Christian Video Library ,Videos
   Christian Television
   TBN TV Live
   15,000 Videos - HP Tube
   712 Youth Music Vids
  Christian Video Library
   Praise Videos #1 & #2
   85 Sermon Videos
   Prophecy Film -Videos
   JESUS Film -Video
   Childrens JESUS Film
   Gospel For Kids Movie
   Passion Of The Christ
   Noah, Sodom, Sinai, Ark
   Tsunami Videos Photos
News And Information
   Testimonies
   Submit Lyrics, Tabs, Serm
   10.000 Illustrations
   Bible College Course
   Clipart & Web Graphics
   Greatest Preachers
   Complete Talking Bible
   Christian Chat Rooms
   Links Church Resource
   HP Statement Of Faith
Download Clipart
   Audio Sermons
   Clipart & Web Graphics
   Church Administration
   Bible Study Software
   Screen Savers Software
   Verse A Day Software
   Educational Games
   Trade Center Photos

   Soft. Search Engine
Higher Praise News
   Current News
    Archived News
   Submit News
   Newsletter   Higher Praise Interact Prayer
   Prayer For All Needs
   
Submit Lyrics, Sermons
   
Contact Higher Praise
   
Advertising 
   Privacy Policy
//
He Died For You,  Click For Answer! This Is Who Jesus Is Video

'
 
0-9 A B C D E F G H I J K L M N O P Q R S T U V W X Y Z
.

//
Click For Printable...Version Of This File
 

Absolution Day


by Theocracy




#----------------------------------PLEASE NOTE---------------------------------#
#This file is the author's own work and represents their interpretation of the #
#song. You may only use this file for private study, scholarship, or research. #
#------------------------------------------------------------------------------##

                                 ABSOLUTION DAY
                            As recorded by Theocracy
                      (From the 2008 Album MIRROR OF SOULS)

Words and Music by Matt Smith, Jonathan Hinds, Seth Filkins


        D#5VII                 C#5                  B5                   D#5
      x 7 9 9 x x          x 5 7 7 x x          x 3 5 5 x x          0 2 2 x x x

          F#5                  A#5                  E5                   G#5
      3 5 5 x x x          x 2 4 4 x x          1 3 3 x x x          x 0 2 2 x x

          C#                 C#sus4                 E#5                  Fm
      x 5 4 x x x          x 5 5 x x x          2 4 4 x x x          2 4 4 2 2 2

        Absus2               Dbsus2                 Eb                   F5
      x 0 2 2 0 0          x x 0 2 3 0          0 2 2 1 0 0          2 4 4 x x x

          Db5                  Eb5                 Ab5V                 Eb/G
      x 5 7 7 x x          x 7 9 9 x x          5 7 7 x x x          4 7 x x x x

          D5                   G5                   A5                   C5
      x 6 8 8 x x          4 6 6 x x x          6 8 8 x x x          x 4 6 6 x x

Gtr I (D# G# C# F# A# D#) - 'Lead Guitar 1'
Gtr II (D# G# C# F# A# D#) - 'Lead Guitar 2'
Gtr III (D# G# C# F# A# D#) - 'Rhythm Guitar 1'
Gtr IV (D# G# C# F# A# D#) - 'Rhythm Guitar 2'
Gtr V (D# G# C# F# A# D#) - '12-string Acoustic'
Gtr VI (D# G# C# F# A# D#) - 'Clean Electric'

 Intro - 0:00
  Q=174
  N.C.(D#5)                           N.C.(E5)
 4/4
  Gtrs I, II
  S S  S S S S S S S S  S S S S S S   S S  S S S S S S S S  S S S S S S

-7p0--8p0-7p0-5p0-7p0--8p0-7p0-5p0-
-7p0--8p0-7p0-5p0-7p0--8p0-7p0-5p0--

-8p0-10p0-8p0-7p0-8p0-10p0-8p0-7p0-
-8p0-10p0-8p0-7p0-8p0-10p0-8p0-7p0--

-----------------------------------
------------------------------------

-----------------------------------
------------------------------------

-----------------------------------
------------------------------------

-----------------------------------
------------------------------------



 Gtr III

 PM------------------------------------------------------------------

 S S  S S S S S S S S  S S S S S S   S S  S S S S S S S S  S S S S S S

-----------------------------------
------------------------------------

-----------------------------------
------------------------------------

-----------------------------------
------------------------------------

-----------------------------------
------------------------------------

-----------------------------------
------------------------------------

-0-0--0-0-0-0-0-0-0-0--0-0-0-0-0-0-
-1-1--1-1-1-1-1-1-1-1--1-1-1-1-1-1--



  N.C.(E#5)                           N.C.(F#5)
 4/4
  S S  S S S S S S S S  S S S S S S   S S  S S S S S S S S  S S S S S S

-7p0--8p0-7p0-5p0-7p0--8p0-7p0-5p0-
-7p0--8p0-7p0-5p0-7p0--8p0-7p0-5p0--

-8p0-10p0-8p0-7p0-8p0-10p0-8p0-7p0-
-8p0-10p0-8p0-7p0-8p0-10p0-8p0-7p0--

-----------------------------------
------------------------------------

-----------------------------------
------------------------------------

-----------------------------------
------------------------------------

-----------------------------------
------------------------------------



 PM------------------------------------------------------------------

 S S  S S S S S S S S  S S S S S S   S S  S S S S S S S S  S S S S S S

-----------------------------------
------------------------------------

-----------------------------------
------------------------------------

-----------------------------------
------------------------------------

-----------------------------------
------------------------------------

-----------------------------------
------------------------------------

-2-2--2-2-2-2-2-2-2-2--2-2-2-2-2-2-
-3-3--3-3-3-3-3-3-3-3--3-3-3-3-3-3--



  N.C.(E5)                            N.C.(B)
 4/4
  S S  S S S S S S S S  S S S S S S   S S  S S S S S S S S  S S S S S S

-7p0--8p0-7p0-5p0-7p0--8p0-7p0-5p0-
-7p0--8p0-7p0-5p0-7p0--8p0-7p0-5p0--

-8p0-10p0-8p0-7p0-8p0-10p0-8p0-7p0-
-8p0-10p0-8p0-7p0-8p0-10p0-8p0-7p0--

-----------------------------------
------------------------------------

-----------------------------------
------------------------------------

-----------------------------------
------------------------------------

-----------------------------------
------------------------------------



 PM------------------------------------------------------------------

 S S  S S S S S S S S  S S S S S S   S S  S S S S S S S S  S S S S S S

-----------------------------------
------------------------------------

-----------------------------------
------------------------------------

-----------------------------------
------------------------------------

-----------------------------------
------------------------------------

-7-7--7-7-7-7-7-7-7-7--7-7-7-7-7-7-
------------------------------------

-----------------------------------
-8-8--8-8-8-8-8-8-8-8--8-8-8-8-8-8--



    N.C.(G#5)                           N.C.(F#5)        N.C.(E#5)
   4/4
    S S  S S S S S S S S  S S S S S S   S S  S S S S S S S S  S S S S S S

--7p0--8p0-7p0-5p0-7p0--8p0-7p0-5p0-
-7p0--8p0-7p0-5p0-7p0--8p0-7p0-5p0-


o-8p0-10p0-8p0-7p0-8p0-10p0-8p0-7p0-
-8p0-10p0-8p0-7p0-8p0-10p0-8p0-7p0-


------------------------------------
-----------------------------------


------------------------------------
-----------------------------------


o-----------------------------------
-----------------------------------


------------------------------------
-----------------------------------



   PM------------------------------------------------------------------

   S S  S S S S S S S S  S S S S S S   S S  S S S S S S S S  S S S S S S

------------------------------------
-----------------------------------


o-----------------------------------
-----------------------------------


------------------------------------
-----------------------------------


------------------------------------
-----------------------------------


o-----------------------------------
-----------------------------------


--5-5--5-5-5-5-5-5-5-5--5-5-5-5-5-5-
-3-3--3-3-3-3-3-3-2-2--2-2-2-2-2-2-



  D#5VII                      C#5
  E. S +E   Q.    +E   S  S    E.  S  +E  Q  E E  E

-7--0-(0)-12----(12)-10-12-
-10---8--(8)-7--5-7--8--


-8--0-(0)-12----(12)-12-13-
-12--10-(10)-8--7-8-10-o


---------------------------
------------------------


---------------------------
------------------------


---------------------------
-----------------------o


---------------------------
------------------------



 E. S +E   Q.    +E   S  S    E.  S  +E  Q  E E  E

---------------------------
------------------------


---------------------------
-----------------------o


---------------------------
------------------------


-9--9-(9)--9-----(9)--9--9-
--7---7--(7)-7--7-7--7--


-7--7-(7)--7-----(7)--7--7-
--5---5--(5)-5--5-5--5-o


---------------------------
------------------------



  N.C.(G#5)        N.C.(A#5)
 4/4
  S S  S S S S S S S S  S S S S S S

-7p0--8p0-7p0-5p0-7p0--8p0-7p0-5p0-

-8p0-10p0-8p0-7p0-8p0-10p0-8p0-7p0-

-----------------------------------

-----------------------------------

-----------------------------------

-----------------------------------



 PM---------------------------------

 S S  S S S S S S S S  S S S S S S

-----------------------------------

-----------------------------------

-----------------------------------

-----------------------------------

-----------------------------------

-5-5--5-5-5-5-5-5-7-7--7-7-7-7-7-7-



  N.C.(B)          N.C.(C#5)
  S S  S S S S S S  S  S  S  S  S  S  S  S

-7p0--8p0-7p0-5p0--7p=0--8p=0--7p=0--5p=0--

-8p0-10p0-8p0-7p0--8p=0-10p=0--8p=0--7p=0--

-------------------------------------------

-------------------------------------------

-------------------------------------------

-------------------------------------------



---------------------------------------

 S S  S S S S S S  S  S  S  S  S  S  S  S

-------------------------------------------

-------------------------------------------

-------------------------------------------

-------------------------------------------

-------------------------------------------

-8-8--8-8-8-8-8-8-10-10-10-10-10-10-10-10--



    D#5VII                      C#5
    E. S +E   Q.    +E   S  S    E.  S  +E  Q  E E  E

--7--0-(0)-12----(12)-10-12-
-10---8--(8)-7--5-7--8-


o-8--0-(0)-12----(12)-12-13-
-12--10-(10)-8--7-8-10-


----------------------------
-----------------------


----------------------------
-----------------------


o---------------------------
-----------------------


----------------------------
-----------------------



   E. S +E   Q.    +E   S  S    E.  S  +E  Q  E E  E

----------------------------
-----------------------


o---------------------------
-----------------------


----------------------------
-----------------------


--9--9-(9)--9-----(9)--9--9-
--7---7--(7)-7--7-7--7-


o-7--7-(7)--7-----(7)--7--7-
--5---5--(5)-5--5-5--5-


----------------------------
-----------------------



 1.
  B5                          C#5
  E. S +E   Q.    +E   S  S    E.  S  +E  Q  E E  E

-7--0-(0)-12----(12)-10-12-
-10---8--(8)-7--5-7--8---


-8--0-(0)-12----(12)-12-13-
-12--10-(10)-8--7-8-10--o


---------------------------
-------------------------


---------------------------
-------------------------


---------------------------
------------------------o


---------------------------
-------------------------



 E. S +E   Q.    +E   S  S    E.  S  +E  Q  E E  E

---------------------------
-------------------------


---------------------------
------------------------o


---------------------------
-------------------------


-5--5-(5)--5-----(5)--5--5-
--7---7--(7)-7--7-7--7---


-3--3-(3)--3-----(3)--3--3-
--5---5--(5)-5--5-5--5--o


---------------------------
-------------------------



  2.
  N.C.(G#5)        N.C.(A#5)          N.C.(B)          N.C.(C#5)
 4/4
  S S  S S S S S S S S  S S S S S S   S S  S S S S S S S S  S S S S S S

-7p0--8p0-7p0-5p0-7p0--8p0-7p0-5p0-
-7p0--8p0-7p0-5p0-7p0--8p0-7p0-5p0--

-8p0-10p0-8p0-7p0-8p0-10p0-8p0-7p0-
-8p0-10p0-8p0-7p0-8p0-10p0-8p0-7p0--

-----------------------------------
------------------------------------

-----------------------------------
------------------------------------

-----------------------------------
------------------------------------

-----------------------------------
------------------------------------



 PM------------------------------------------------------------------

 S S  S S S S S S S S  S S S S S S   S S  S S S S S S S S  S S S S S S

-----------------------------------
------------------------------------

-----------------------------------
------------------------------------

-----------------------------------
------------------------------------

-----------------------------------
------------------------------------

-----------------------------------
------------------------------------

-5-5--5-5-5-5-5-5-5-5--5-5-5-5-5-5-
-3-3--3-3-3-3-3-3-2-2--2-2-2-2-2-2--



   Verse 1 & 2 - 0:33, 2:10
    $
    D#5
    Gtrs III, IV
    PM----------------------------------------------------

    E S S S S S S E S S S S S S   E S S S S S S E S S S S E

------------------------------
---------------------------


o-----------------------------
---------------------------


------------------------------
---------------------------


------------------------------
---------------------------


o-2-------------2-------------
-2-------------2---------2-


--0-0-0-0-0-0-0-0-0-0-0-0-0-0-
-0-0-0-0-0-0-0-0-0-0-0-0-0-



  B5                        C#5
    PM----
   PM----
         PM----
   PM----

  E S S S S E S S S S E E   E S S S S E S S S S E E

-------------------------
-------------------------

-------------------------
-------------------------

-5---------5---------5-5-
-7---------7---------7-7-

-5---------5---------5-5-
-7---------7---------7-7-

-3-3-3-3-3-3-3-3-3-3-3-3-
-5-5-5-5-5-5-5-5-5-5-5-5-

-------------------------
-------------------------



  D#5
  PM----------------------------------------------------

  E S S S S S S E S S S S S S   E S S S S S S E S S S S E

-----------------------------
----------------------------

-----------------------------
----------------------------

-----------------------------
----------------------------

-----------------------------
----------------------------

-2-------------2-------------
-2-------------2---------2--

-0-0-0-0-0-0-0-0-0-0-0-0-0-0-
-0-0-0-0-0-0-0-0-0-0-0-0-0--



  B5                        C#5
    PM----
   PM----
         PM----
   PM----
   PM

  E S S S S E S S S S E E   E S S S S E S S S S E S S

-------------------------
---------------------------

-------------------------
---------------------------

-5---------5---------5-5-
-7---------7---------7-----

-5---------5---------5-5-
-7---------7---------7-----

-3-3-3-3-3-3-3-3-3-3-3-3-
-5-5-5-5-5-5-5-5-5-5-5-0-0-

-------------------------
---------------------------



  F#5           B5   A#5    N.C.(D#5)
          PM
               PM-------------------------------
  H.      E E   H    H      S S S S S S S S S S S S S S S S

-------------
-----------
---------------------------------

-------------
-----------
---------------------------------

-------------
-5----4----
---------------------------------

-5-----------
-5----4----
---------------------------------

-5-------5-5-
-3----2----
---------------------------------

-3-------3-3-
-----------
-0-0-0-0-3-3-0-0-5-5-0-0-7-7-0-0-



 -------------------------------

  S S S S S S S S S S S S S S S S

----------------------------------

----------------------------------

----------------------------------

----------------------------------

----------------------------------

-8-8-0-0-7-7-0-0-5-5-0-0-3-3-0-0--



                             1.                         2.,D.S.
  E5         B5               C#5                        C#5
                              PM------------
            PM------------

  W          Q.   E +Q   Q    S S S S S S S S E E Q      S S S S S S S S H

----------
----------------
-------------------------
----------------------

----------
----------------
------------------------o
----------------------

----------
-5----5-(5)--5--
-----------------7-------
-----------------7----

-3--------
-5----5-(5)--5--
-----------------7-------
-----------------7----

-3--------
-3----3-(3)--3--
-5-5-5-5-5-5-5-5-5------o
-5-5-5-5-5-5-5-5-5----

-1--------
----------------
-------------------------
----------------------



 Pre-Chorus 1&2 - 1:17,2:33
  D#5VII   C#D#5VII    B5       A#B5  G#5      B5    C#5 C#  C#suC#5
       PM
                  PM
            PM
   PM    PM  PM  PM  PM
  H    E E S S +S  S   H    E E E E   H    E E E E   E E E E E E E E

--------------------
--------------
--------------
-----------------

--------------------
--------------
--------------
-----------------

-9------------------
-5------------
-2------------
-----------------

-9----9-9-7s9-(9)---
-5----5-5-4s5-
-2----2-2-5---
-7---4---5---7---

-7----7-7-5s7-(7)---
-3----3-3-2s3-
-0----0-0-3-5-
-5-5-5-5-5-5-5-5-

--------------------
--------------
--------------
-----------------



    D#5VII   C#D#5VII    B5       A#B5  G#5      B5    C#5 C#  C#suC#5
         PM
                  PM
            PM
   PM    PM  PM  PM  PM
  a H    E E S S +S  S   H    E E E E   H    E E E E   E E E E E E E E

----------------------
--------------
--------------
------------------

----------------------
--------------
--------------
------------------

----------------------
-5------------
-2------------
------------------

-7s9----9-9-7s9-(9)---
-5----5-5-4s5-
-2----2-2-5---
-7---4---5---7----

-5s7----7-7-5s7-(7)---
-3----3-3-2s3-
-0----0-0-3-5-
-5-5-5-5-5-5-5-5--

----------------------
--------------
--------------
------------------



  D#5VII
  Gtr III
  H            H               H.                    Q

----------------------------
---------------------------

----------------------------
---------------------------

-9\-------------------------
---------------------------

-9\-------------------------
---------------------------

-7\-------------------------
---------------------------

----------------------------
----------------------12\--



 Gtr IV

    PM----
   PM----
   PM-------
   PM----
   PM

 E  S S S S E S S S S E S S   S  S E S S S S E S S  Q

----------------------------
---------------------------

-5----------7---------8-----
------7---------5----------

-4--4-4-4-4-4-4-4-4-4-4-4-4-
-4--4-4-4-4-4-4-4-4-4--7\--

----------------------------
---------------------------

----------------------------
---------------------------

----------------------------
---------------------------



    B5
    Gtrs III, IV
      PM----------------------------------------------------------

    E S S S S S S S S S S S S S S   S S S S S S S S S S S S S S S S

--------------------------------
---------------------------------


o-------------------------------
---------------------------------


--5-----------------------------
---------------------------------


--5-----------------------------
---------------------------------


o-3-3-3-3-3-3-3-3-3-3-3-3-3-3-3-
-3-3-3-3-3-3-3-3-3-3-3-3-3-3-3-3-


--------------------------------
---------------------------------



                               1.
  F#5                   E#5     D#5
    PM----------------
   PM
     PM--------------------

  E S S S S S S S S S S E S S   E S S S S S S S S S S E E

-----------------------------
-----------------------------


-----------------------------
----------------------------o


-----------------------------
-----------------------------


-5---------------------4-----
-2---------------------------


-5---------------------4-----
-2--------------------------o


-3-3-3-3-3-3-3-3-3-3-3-2-2-2-
-0-0-0-0-0-0-0-0-0-0-0-0-0---



  2.
  D#5
  Gtr III
    PM------------------------

  E S S S S S S S S S S S S S S

-------------------------------

-------------------------------

-------------------------------

-2-----------------------------

-2-----------------------------

-0-0-0-0-0-0-0-0-0-0-0-0-0-0-0-



 Gtr IV

   PM------------------------

 E S S S S S S S S S S S S S S

-------------------------------

-------------------------------

-------------------------------

-2-----------------------------

-2-----------------------------

-0-0-0-0-0-0-0-0-0-0-0-0-0-0-0-



  B5                       C#5
    PM----
   PM----
      PM----------

  E S S S S E S S S S Q    S S S S E S S  E  E Q

------------------------
--------------------------

------------------------
--------------------------

-5---------5---------5--
--------------------------

-5---------5---------5--
--------------------------

-3-3-3-3-3-3-3-3-3-3-3--
-5-5-5-5-5-5-5--5---------

------------------------
--------------------------



   PM----
   PM----
      PM----------
  ~~~

 E S S S S E S S S S Q    S S S S E S S  H

------------------------
--------------------------

------------------------
--------------------------

-5---------5---------5--
--------------------------

-5---------5---------5--
--------------------------

-3-3-3-3-3-3-3-3-3-3-3--
-5-5-5-5-5-5-5-[5]--------

------------------------
--------------------------



   Chorus 1 & 2 - 1:45, 3:00
    F#5            A#5
    Gtr I
     ~~~
     W              Q.    E  +Q    S  E.

--15-----------
-14----15-(15)--15s17--


o--------------
-----------------------


---------------
-----------------------


---------------
-----------------------


o--------------
-----------------------


---------------
-----------------------



   Gtrs III, IV

            PM

    H.      E E    W

---------------
-----------------------


o--------------
-----------------------


---------------
--4--------------------


---5-----------
--4--------------------


o--5-------5-5-
--2--------------------


---3-------3-3-
-----------------------



  D#5            A#5
   ~~~
   W              Q.    E  +E   E  E  E

-15-----------
-14----15-(15)-17s22-22--

--------------
-------------------------

--------------
-------------------------

--------------
-------------------------

--------------
-------------------------

--------------
-------------------------



          PM

  H.      E E    W

--------------
-------------------------

--------------
-------------------------

--------------
--4----------------------

--2-----------
--4----------------------

--2-------2-2-
--2----------------------

--0-------0-0-
-------------------------



  B5             F#5                     C#5
   ~~~~~~~~~~~
   H.       Q     Q.    E  +E   E  E E    W

-22-------22--
-22----20-(20)-19-19---
-----------

--------------
-----------------------
-15--------

--------------
-----------------------
-----------

--------------
-----------------------
-----------

--------------
-----------------------
-----------

--------------
-----------------------
-----------



  W              W                       W

--------------
-----------------------
-----------

--------------
-----------------------
-----------

--5-----------
-----------------------
--7--------

--5-----------
--5--------------------
--7--------

--3-----------
--5--------------------
--5--------

--------------
--3--------------------
-----------



                                        To Coda
  B5                      C#5
   S  S  S  S  S  S  S  S  S  S  S  S  S  S  S  S

-14----------14----------14----------14-------------


----15-15-15----15-15-15----15-15-15----15-15-15---o


----------------------------------------------------


----------------------------------------------------


---------------------------------------------------o


----------------------------------------------------



  PM------
               PM------

  S  S  S  S  Q           S  S  S  S  Q

----------------------------------------------------


---------------------------------------------------o


--------------5-----------------------7-------------


--------------5-----------------------7-------------


--3--3--3--3--3-----------5--5--5--5--5------------o


----------------------------------------------------



                                    D.S. al Coda
  B5          N.C.             F#5
   ~~
   W          W                W

-15--------
----------------
--------------------

-----------
----------------
--------------------

-----------
----------------
--------------------

-----------
----------------
--------------------

-----------
----------------
--------------------

-----------
----------------
--------------------



                                 PM----

  W          Q.   E +Q   Q    Q  S S S S E E Q

-----------
----------------
--------------------

-----------
----------------
--------------------

--5--------
----------------
--------------------

--5--------
----------------
-5----------5-------

--3--------
-3----2-(2)--0--
-5----------5-------

-----------
----------------
-3--3-3-3-3-3-------



    &
    D#5VII                      C#5
    Gtrs I, II
    E. S +E   Q.    +E   S  S    E.  S  +E  Q  E E  E

--7--0-(0)-12----(12)-10-12-
-10---8--(8)-7--5-7--8-


o-8--0-(0)-12----(12)-12-13-
-12--10-(10)-8--7-8-10-


----------------------------
-----------------------


----------------------------
-----------------------


o---------------------------
-----------------------


----------------------------
-----------------------



   Gtrs III, IV

   E. S +E   Q.    +E   S  S    E.  S  +E  Q  E E  E

----------------------------
-----------------------


o---------------------------
-----------------------


----------------------------
-----------------------


--9--9-(9)--9-----(9)--9--9-
--7---7--(7)-7--7-7--7-


o-7--7-(7)--7-----(7)--7--7-
--5---5--(5)-5--5-5--5-


----------------------------
-----------------------



 1.
  B5                          C#5
  E. S +E   Q.    +E   S  S    E.  S  +E  Q  E E  E

-7--0-(0)-12----(12)-10-12-
-10---8--(8)-7--5-7--8---


-8--0-(0)-12----(12)-12-13-
-12--10-(10)-8--7-8-10--o


---------------------------
-------------------------


---------------------------
-------------------------


---------------------------
------------------------o


---------------------------
-------------------------



 E. S +E   Q.    +E   S  S    E.  S  +E  Q  E E  E

---------------------------
-------------------------


---------------------------
------------------------o


---------------------------
-------------------------


-5--5-(5)--5-----(5)--5--5-
--7---7--(7)-7--7-7--7---


-3--3-(3)--3-----(3)--3--3-
--5---5--(5)-5--5-5--5--o


---------------------------
-------------------------



  2.
  N.C.(G#5)        N.C.(A#5)          N.C.(B)          N.C.(C#5)
 4/4
  S S  S S S S S S S S  S S S S S S   S S  S S S S S S S S  S S S S S S

-7p0--8p0-7p0-5p0-7p0--8p0-7p0-5p0-
-7p0--8p0-7p0-5p0-7p0--8p0-7p0-5p0--

-8p0-10p0-8p0-7p0-8p0-10p0-8p0-7p0-
-8p0-10p0-8p0-7p0-8p0-10p0-8p0-7p0--

-----------------------------------
------------------------------------

-----------------------------------
------------------------------------

-----------------------------------
------------------------------------

-----------------------------------
------------------------------------



 PM------------------------------------------------------------------

 S S  S S S S S S S S  S S S S S S   S S  S S S S S S S S  S S S S S S

-----------------------------------
------------------------------------

-----------------------------------
------------------------------------

-----------------------------------
------------------------------------

-----------------------------------
------------------------------------

-----------------------------------
------------------------------------

-5-5--5-5-5-5-5-5-5-5--5-5-5-5-5-5-
-3-3--3-3-3-3-3-3-2-2--2-2-2-2-2-2--



 Interlude 1 - 3:33
  N.C.(D#5)
  ~~~~~~~~~~~~~~~~~~~~~~~~~~~~~~
  W                         +H     +Q    Q

-7-----------------------
-(7)----(7)\-----

-8-----------------------
-(8)----(8)\-----

-------------------------
-----------------

-------------------------
-----------------

-------------------------
-----------------

-------------------------
-----------------



 PM----------------
   PM

 S S S S S S S S E E E E    W

-------------------------
-----------------

-------------------------
-----------------

-------------------------
-----------------

-------------------------
-----------------

-------------------------
-----------------

-0-0-0-0-0-0-0-0-0-0---0-
-----------------



  PM----------------
   PM    PM--
   PM----

  S S S S S S S S E E E E   E S S E E S S S S Q

-------------------------
------------------------

-------------------------
------------------------

-------------------------
------------------------

-------------------------
------------------------

-------------------------
------------------------

-0-0-0-0-0-0-0-0-0-0---0-
---0-0-0---0-0-0-0-2b3--



  PM----------------
   PM
  S S S S S S S S E E E E   W

-------------------------
------

-------------------------
------

-------------------------
------

-------------------------
------

-------------------------
------

-0-0-0-0-0-0-0-0-0-0---0-
------



    PM----------------
   PM    PM---------------------
    S S S S S S S S E E E E   E S S E S S E S S E S S

--------------------------
-------------------------


o-------------------------
-------------------------


--------------------------
-------------------------


--------------------------
-------------------------


o-------------------------
-------------------------


--0-0-0-0-0-0-0-0-0-0---0-
---0-0-0-0-0-0-0-0-0-0-0-



 -------------------
   PM    PM--
   PM----

  S S S S S S S S E E E E   E S S E E S S S S Q

-------------------------
--------------------------


-------------------------
-------------------------o


-------------------------
--------------------------


-------------------------
--------------------------


-------------------------
-------------------------o


-0-0-0-0-0-0-0-0-0-0---0-
---0-0-0---0-0-0-0-2b3----



  PM----------------
   PM    PM--------------

  S S S S S S S S E E E E   E S S E S S E S S E E

-------------------------
-----------------------

-------------------------
-----------------------

-------------------------
-----------------------

-------------------------
-----------------------

-------------------------
-----------------------

-0-0-0-0-0-0-0-0-0-0---0-
---0-0-0-0-0-0-0-0-0---



   Bridge 1 - 3:55
    slower Q=80
    Fm                                     Absus2
    Gtrs V, VI
    S S S S +S  S Q  E E E   S S S S S S E S S S S S S S S

-------------------------
-----------------------0-------


o---------------2--------
---------2-----------0---0-----


--------2-(2)------2-----
-------2---2-------2-------2---


------4-------4------4---
-----4-------4---2-----------0-


o---4------------------4-
---4-----------0---------------


--2----------------------
-2-----------------------------



  Dbsus2                       Eb
  S S S S +S  S S  S  +H       S S S S +S  S E +H

-------0-(0)-----(0)-(0)----
-------------------------


-----3-------3--------------
---------------0-(0)----o


---2-----------2------------
-------1-(1)-------------


-0--------------------------
-----2-------2-----------


----------------------------
---2--------------------o


----------------------------
-0-----------------------



 Interlude 2 - 4:19
  a tempo Q=174
  N.C.(F5)
  Gtrs III, IV
  PM-------------------------------------
  E E E S S E E E E   E E E S S E E E E

-------------------
-------------------

-------------------
-------------------

-------------------
-------------------

-------------------
-------------------

-------------------
-------------------

-2-0-2-0-0-2-0-2-0-
-2-0-2-0-0-2-0-2-0-



                      N.C.(Ab5)
 -------------------------------------

  E E E S S E E E E   E E E S S E E E E

-------------------
--------------------

-------------------
--------------------

-------------------
--------------------

-------------------
--------------------

-------------------
--------------------

-2-0-2-0-0-2-0-2-0-
-5-0-5-0-0-5-0-5-0--



  N.C.(Db5)
  PM-------------------------------------
  E E E S S E E E E   E E E S S E E E E

-------------------
-------------------

-------------------
-------------------

-------------------
-------------------

-------------------
-------------------

-5-0-5-0-0-5-0-5-0-
-5-0-5-0-0-5-0-5-0-

-------------------
-------------------



  N.C.(Eb5)
 -------------------------------------------------

  E E E E E E E E   S S S S S S S S S S S S S S S S

-----------------
---------------------------------

-----------------
---------------------------------

-----------------
---------------------------------

-----------------
---------------------------------

-7---7---7---7---
-7-7-5-5-4-4-5-5-4-4-------------

---0---0---0---0-
---------------------7-7-5-5-4-4-



 Guitar Solo - 4:33
  F5                             Db5
  Gtr I
  ~                              ~
  H           E   E    E   E     H           E   E   E   E

------------------------------
-----------------------------

-7-----------7---7---10---7---
-----------------------------

------------------------------
-7-----------7---7---9---6---

------------------------------
-----------------------------

------------------------------
-----------------------------

------------------------------
-----------------------------



 Gtrs III, IV

   PM----
   PM-------------
     PM----
   PM------------

 E S S S S E S S S S  S S S S   E S S S S E S S S S S S S S

------------------------------
-----------------------------

------------------------------
-----------------------------

------------------------------
-7---------7-----------------

-4---------4------------------
-7---------7-----------------

-4---------4------------------
-5-5-5-5-5-5-5-5-5-5-5-5-5-5-

-2-2-2-2-2-2-2-2-2-2--2-2-2-2-
-----------------------------



  Eb5                            Ab5V                  Eb/G
  ~~
  Q.         E Q       Q         Q     E   E Q     E   E

------------------------------
---------------------------

------------------------------
---------------------------

--------------9---------------
-6-----7---6---------------

-9----------9---------9-------
-------------9-----7-------

------------------------------
---------------------------

------------------------------
---------------------------



    PM----
   PM------------

 E  S S S S E S S S S S S S S   E S S S S E E S S S S S S

------------------------------
---------------------------

------------------------------
---------------------------

-9----------9-----------------
---------------------------

-9----------9-----------------
-7---------7---------------

-7--7-7-7-7-7-7-7-7-7-7-7-7-7-
-7---------7-7-------------

------------------------------
-5-5-5-5-5-5-4-4-4-4-4-4-4-



  F5                            Db5
  PM--------------------------------------
     PM------

  E E   E   E E   E   E   E     E E   E   E E   E   E   E

-----------------------------
-----------------------------

-----------------------------
-----------------------------

-----------4-7---6---4-------
-------6---7-9---7---6-------

-4-6---7-----------------7---
-7-9---------------------9---

-----------------------------
-----------------------------

-----------------------------
-----------------------------



   PM----
   PM------------
     PM----
   PM------------

 E S S S S E S S S S S S S S   E S S S S E S S S S S S S S

-----------------------------
-----------------------------

-----------------------------
-----------------------------

-----------------------------
-7---------7-----------------

-4---------4-----------------
-7---------7-----------------

-4---------4-----------------
-5-5-5-5-5-5-5-5-5-5-5-5-5-5-

-2-2-2-2-2-2-2-2-2-2-2-2-2-2-
-----------------------------



  Eb5                           N.C.(Eb5)
    PM------
     PM------------------------------------------

  E E   S S E E   E   E   E     S S S S S S S S S S S S S S S S

-----------------------------
----------------------------------

-----------------------------
-------------------------7-9-9-7--

-------------9---7---6-------
-9-9-7-6-6---6-6-7-7-9-9----------

-9-7---6-6-6-------------9---
-----------9----------------------

-----------------------------
----------------------------------

-----------------------------
----------------------------------



   PM----
   PM----------------------------------------------

 E S S S S E S S S S S S S S   S S S S S S S S S S S S S S S S

-----------------------------
----------------------------------

-----------------------------
----------------------------------

-9---------9-----------------
----------------------------------

-9---------9-----------------
----------------------------------

-7-7-7-7-7-7-7-7-7-7-7-7-7-7-
-7-7-5-5-4-4-5-5-4-4--------------

-----------------------------
---------------------7-7-5-5-4-4--



  F5                               Db5
   ~~~                              ~~~
   H.                   E    E      H.                    E   E

--------------------------------
--------------------------------

-10--------------------9---10---
-12--------------------10---9---

--------------------------------
--------------------------------

--------------------------------
--------------------------------

--------------------------------
--------------------------------

--------------------------------
--------------------------------



     PM----
   PM-------------
       PM----
   PM-------------

  E  S S S S E S S S S S S  S S    E  S S S S E S S S S  S S S S

--------------------------------
--------------------------------

--------------------------------
--------------------------------

--------------------------------
--7----------7------------------

--4----------4------------------
--7----------7------------------

--4----------4------------------
--5--5-5-5-5-5-5-5-5-5--5-5-5-5-

--2--2-2-2-2-2-2-2-2-2-2-2--2-2-
--------------------------------



  Eb5                           Ab5V                Eb/G
  ~                                    PM
  W                              E E   E   E  E E    E   E

-----------------------------
------------------------------

-----------------------------
-10-9-------9-10-9---12---9---

-9---------------------------
--------9---------------------

-----------------------------
------------------------------

-----------------------------
------------------------------

-----------------------------
------------------------------



   PM----
   PM------------

 E S S S S E S S S S S S S S    E S S S S E  E S S  S S S S

-----------------------------
------------------------------

-----------------------------
------------------------------

-9---------9-----------------
------------------------------

-9---------9-----------------
--7---------7-----------------

-7-7-7-7-7-7-7-7-7-7-7-7-7-7-
--7---------7--7--------------

-----------------------------
--5-5-5-5-5-5--4-4-4--4-4-4-4-



  F5                              Db5
  ~~
  H.                    E   E      H            Q.               +S   +S

-9-------------------------9---
-10-----------12b14============(12)r(12)-

----------------------12-------
-----------------------------------------

-------------------------------
-----------------------------------------

-------------------------------
-----------------------------------------

-------------------------------
-----------------------------------------

-------------------------------
-----------------------------------------



    PM----
   PM-------------
      PM----
    PM-------------------

 E  S S S S E S S S S  S S S S    E S S S S E  S     S S S S S   S    S

-------------------------------
-----------------------------------------

-------------------------------
-----------------------------------------

-------------------------------
--7---------7----------------------------

-4----------4------------------
--7---------7----------------------------

-4----------4------------------
--5-5-5-5-5-5--5-----5-5-5-5-5---5----5--

-2--2-2-2-2-2-2-2-2-2--2-2-2-2-
-----------------------------------------



  Eb5                               N.C.(Eb5)
   ~~~                               PM---------------------------

   H.                    Q           S  S  S  S S  S  S S S  S  S  S  E   E

-12--------------------12\-------
-12-12-10-10-9-10-10-9-9--------------------

---------------------------------
-------------------------12-12-12-10---9----

---------------------------------
--------------------------------------------

---------------------------------
--------------------------------------------

---------------------------------
--------------------------------------------

---------------------------------
--------------------------------------------



     PM----
   PM----------------------------------------------------------

  E  S S S S E S S S S  S  S S S    S  S  S  S S  S  S S S  S  S  S  S S S S

---------------------------------
--------------------------------------------

---------------------------------
--------------------------------------------

--9----------9-------------------
--------------------------------------------

--9----------9-------------------
--------------------------------------------

--7--7-7-7-7-7-7-7-7-7--7--7-7-7-
--7--7--5--5-4--4--5-5-4--4-----------------

---------------------------------
-----------------------------7--7--5-5-4-4--



   Bridge 2 - 4:52
    G#5                          C#5
    Gtr I
    W             +W             W
    
              

    o              /

    Gtrs III, IV
            PM
            PM
           PM

    H.      E E    H.      E E   H.      E E

--------------
--------------
-------------


o-------------
--------------
-------------


--2-----------
--2-----------
-5-----------


--2-------2-2-
--2-------2-2-
-5-------5-5-


o-0-------0-0-
--0-------0-0-
-3-------3-3-


--------------
--------------
-------------



                                      1.               2.
  E5                        F#5
                      PM
                       PM--------------------

  W          +H.      E E   W          +H.      E E     E E E E E E E E

----------
--------------
----------
---------------
------------------

----------
--------------
----------
--------------o
------------------

----------
--------------
----------
---------------
------------------

-3--------
-(3)----------
-5--------
-(5)-----------
------------------

-3--------
-(3)------3-3-
-5--------
-(5)------5-5-o
-5-5-5-5-5-5-5-5--

-1--------
-(1)------1-1-
-3--------
-(3)------3-3--
-3-3-3-3-3-3-3-3--



    B5
    PM--
   PM------
   PM--------
   PM------
   PM

    E S S E S S E S S E S S   E S S E S S E S S E S S

--------------------------
-------------------------


o-------------------------
-------------------------


--------5-----------5-----
-------5-----------5-----


--------5-----------5-----
-------5-----------5-----


o-3-3-3-3-3-3-3-3-3-3-3-3-
-3-3-3-3-3-3-3-3-3-3-3-3-


--------------------------
-------------------------



                            D5
    PM
   PM
   PM
   PM
     PM
   PM
   PM
   PM

  E S S E S S E S S E S S   E S S E S S E S S E S S

-------------------------
-------------------------

-------------------------
-------------------------

-5-----5-----5-----5-----
-8-----8-----8-----8-----

-5-----5-----5-----5-----
-8-----8-----8-----8-----

-3-3-3-3-3-3-3-3-3-3-3-3-
-6-6-6-6-6-6-6-6-6-6-6-6-

-------------------------
-------------------------



  G5
  PM--
   PM------
   PM--------
   PM------
   PM

  E S S E S S E S S E S S   E S S E S S E S S E S S

-------------------------
-------------------------

-------------------------
-------------------------

-------------------------
-------------------------

-------6-----------6-----
-------6-----------6-----

-------6-----------6-----
-------6-----------6-----

-4-4-4-4-4-4-4-4-4-4-4-4-
-4-4-4-4-4-4-4-4-4-4-4-4-



  1.
  A5
  PM--
   PM------
   PM--------
   PM------
   PM

  E S S E S S E S S E S S   E S S E S S E S S E S S

-------------------------
--------------------------


-------------------------
-------------------------o


-------------------------
--------------------------


-------8-----------8-----
-------8-----------8------


-------8-----------8-----
-------8-----------8-----o


-6-6-6-6-6-6-6-6-6-6-6-6-
-6-6-6-6-6-6-6-6-6-6-6-6--



  2.
  PM--
   PM------
   PM

  E S S E S S E S S E S S   E E Q  Q   Q

-------------------------
----------------

-------------------------
----------------

-------------------------
----------------

-------8-----------8-----
-8--------------

-------8-----------8-----
-8--------------

-6-6-6-6-6-6-6-6-6-6-6-6-
-6---------13\--



   Chorus 3 - 5:36
    F#5            A#5
    Gtr I
     ~~~
     W              Q.    E  +Q    S  E.

--15-----------
-14----15-(15)--15s17--


o--------------
-----------------------


---------------
-----------------------


---------------
-----------------------


o--------------
-----------------------


---------------
-----------------------



   Gtrs III, IV

            PM

    H.      E E    W

---------------
-----------------------


o--------------
-----------------------


---------------
--4--------------------


---5-----------
--4--------------------


o--5-------5-5-
--2--------------------


---3-------3-3-
-----------------------



  D#5            A#5
   ~~~
   W              Q.    E  +E   E  E  E

-15-----------
-14----15-(15)-17s22-22--

--------------
-------------------------

--------------
-------------------------

--------------
-------------------------

--------------
-------------------------

--------------
-------------------------



          PM

  H.      E E    W

--------------
-------------------------

--------------
-------------------------

--------------
--4----------------------

--2-----------
--4----------------------

--2-------2-2-
--2----------------------

--0-------0-0-
-------------------------



  B5             F#5                     C#5
   ~~~~~~~~~~~
   H.       Q     Q.    E  +E   E  E E    W

-22-------22--
-22----20-(20)-19-19---
-----------

--------------
-----------------------
-15--------

--------------
-----------------------
-----------

--------------
-----------------------
-----------

--------------
-----------------------
-----------

--------------
-----------------------
-----------



  W              W                       W

--------------
-----------------------
-----------

--------------
-----------------------
-----------

--5-----------
-----------------------
--7--------

--5-----------
--5--------------------
--7--------

--3-----------
--5--------------------
--5--------

--------------
--3--------------------
-----------



  B5                      C#5
   S  S  S  S  S  S  S  S  S  S  S  S  S  S  S  S

-14----------14----------14----------14-------------


----15-15-15----15-15-15----15-15-15----15-15-15---o


----------------------------------------------------


----------------------------------------------------


---------------------------------------------------o


----------------------------------------------------



  PM------
               PM------

  S  S  S  S  Q           S  S  S  S  Q

----------------------------------------------------


---------------------------------------------------o


--------------5-----------------------7-------------


--------------5-----------------------7-------------


--3--3--3--3--3-----------5--5--5--5--5------------o


----------------------------------------------------



   Chorus 4 - 5:58
    Ab5V           C5
    Gtr I
     ~~~
     W              Q.    E  +Q    S  E.

--17-----------
-16----17-(17)--17s19--


o--------------
-----------------------


---------------
-----------------------


---------------
-----------------------


o--------------
-----------------------


---------------
-----------------------



   Gtrs III, IV

            PM

    H.      E E    W

---------------
-----------------------


o--------------
-----------------------


---------------
--6--------------------


---7-----------
--6--------------------


o--7-------7-7-
--4--------------------


---5-------5-5-
-----------------------



  F5             C5
   ~~~
   W              Q.    E  +Q    S  E.

-17-----------
-16----17-(17)--17s19--

--------------
-----------------------

--------------
-----------------------

--------------
-----------------------

--------------
-----------------------

--------------
-----------------------



          PM

  H.      E E    W

--------------
-----------------------

--------------
-----------------------

--------------
--6--------------------

--4-----------
--6--------------------

--4-------4-4-
--4--------------------

--2-------2-2-
-----------------------



  Db5            Ab5V                            Eb5
   ~~~~~~~~~~~
   H.       Q     Q   E  E  +E   E  S  S  S  S    H.       Q

--------------
-------------------------------
--------------

-17-------17--
-17--15-14-(14)-14-14-14-15-17-
-17-------17--

--------------
-------------------------------
--------------

--------------
-------------------------------
--------------

--------------
-------------------------------
--------------

--------------
-------------------------------
--------------



  W              W                               W

--------------
-------------------------------
--------------

--------------
-------------------------------
--------------

--7-----------
-------------------------------
--9-----------

--7-----------
--7----------------------------
--9-----------

--5-----------
--7----------------------------
--7-----------

--------------
--5----------------------------
--------------



  Db5                     Eb5
   S  S  S  S  S  S  S  S  S  S  S  S  S  S  S  S

-17----------16----------14----------16-----------


----17-17-17----17-17-17----17-17-17----17-17-17-o


--------------------------------------------------


--------------------------------------------------


-------------------------------------------------o


--------------------------------------------------



  PM------
               PM------

  S  S  S  S  Q           S  S  S  S  Q

--------------------------------------------------


-------------------------------------------------o


--------------7-----------------------9-----------


--------------7-----------------------9-----------


--5--5--5--5--5-----------7--7--7--7--7----------o


--------------------------------------------------



 Outro Chorus - 6:20
  Ab5V           C5                      F5             C5
   ~~~                                    ~~~
   W              Q.    E  +Q    S  E.    W              Q.    E  +Q    S  E.

-17-----------
-16----17-(17)--17s19--
-17-----------
-16----17-(17)--17s19---

--------------
-----------------------
--------------
------------------------

--------------
-----------------------
--------------
------------------------

--------------
-----------------------
--------------
------------------------

--------------
-----------------------
--------------
------------------------

--------------
-----------------------
--------------
------------------------



  >

          PM
                                    PM

  H.      E E    W                       H.      E E    W

--------------
-----------------------
--------------
------------------------

--------------
-----------------------
--------------
------------------------

--------------
--6--------------------
--------------
--6---------------------

--7-----------
--6--------------------
--4-----------
--6---------------------

--7-------7-7-
--4--------------------
--4-------4-4-
--4---------------------

--5-------5-5-
-----------------------
--2-------2-2-
------------------------



  Db5            Ab5V                            Eb5
   ~~~~~~~~~~~
   H.       Q     Q   E  E  +E   E  S  S  S  S    H.       Q

--------------
-------------------------------
--------------

-17-------17--
-17--15-14-(14)-14-14-14-15-17-
-17-------17--

--------------
-------------------------------
--------------

--------------
-------------------------------
--------------

--------------
-------------------------------
--------------

--------------
-------------------------------
--------------



  >

  W              W                               W

--------------
-------------------------------
--------------

--------------
-------------------------------
--------------

--7-----------
-------------------------------
--9-----------

--7-----------
--7----------------------------
--9-----------

--5-----------
--7----------------------------
--7-----------

--------------
--5----------------------------
--------------



  Db5                     Eb5
   S  S  S  S  S  S  S  S  S  S  S  S  S  S  S  S

-17----------16----------14----------16----------

----17-17-17----17-17-17----17-17-17----17-17-17-

-------------------------------------------------

-------------------------------------------------

-------------------------------------------------

-------------------------------------------------



  PM------
               PM------

  S  S  S  S  Q           S  S  S  S  Q

-------------------------------------------------

-------------------------------------------------

--------------7-----------------------9----------

--------------7-----------------------9----------

--5--5--5--5--5-----------7--7--7--7--7----------

-------------------------------------------------



  N.C.(Ab5)   N.C.(C5)                N.C.(F5)    N.C.(C5)
   ~~                                  ~~
   W           Q.    E  +Q    S  E.    W           Q.    E  +Q    S  E.

-17--------
-16----17-(17)--17s19--
-17--------
-16----17-(17)--17s19---

-----------
-----------------------
-----------
------------------------

-----------
-----------------------
-----------
------------------------

-----------
-----------------------
-----------
------------------------

-----------
-----------------------
-----------
------------------------

-----------
-----------------------
-----------
------------------------



  N.C.(Db5)      N.C.(Ab5)                       N.C.(Eb5)
   ~~~~~~~~~~~
   H.       Q     Q   E  E  +E   E  S  S  S  S    H.       Q

--------------
-------------------------------
--------------

-17-------17--
-17--15-14-(14)-14-14-14-15-17-
-17-------17--

--------------
-------------------------------
--------------

--------------
-------------------------------
--------------

--------------
-------------------------------
--------------

--------------
-------------------------------
--------------



  N.C.(Db5)               N.C.(Eb5)                 N.C.(Ab5)
                                                     ~~
   S  S  S  S  S  S  S  S  S  S  S  S  S  S  S  S    H     +Q    Q

-17----------16----------14----------16----------
-17----(17)\-------*

----17-17-17----17-17-17----17-17-17----17-17-17-
-------------------*

-------------------------------------------------
-------------------*

-------------------------------------------------
-------------------*

-------------------------------------------------
-------------------*

-------------------------------------------------
-------------------*



Duration Legend
---------------
W - whole; H - half; Q - quarter; E - 8th; S - 16th; T - 32nd; X - 64th; a - acciaccatura
+ - note tied to previous; . - note dotted; .. - note double dotted
Uncapitalized letters represent notes that are staccato (1/2 duration)
Irregular groupings are notated above the duration line
Duration letters will always appear directly above the note/fret number it represents the
duration for.  Duration letters with no fret number below them represent rests.  Multi-
bar rests are notated in the form Wxn, where n is the number of bars to rest for.  Low
melody durations appear below the staff

Tablature Legend
----------------
 h   - hammer-on
 p   - pull-off
 b   - bend
 pb  - pre-bend
 r   - bend release (if no number after the r, then release immediately)
 /\  - slide into or out of (from/to "nowhere")
 s   - legato slide
 S   - shift slide
  - natural harmonic
[n]  - artificial harmonic
n(n) - tapped harmonic
 ~   - vibrato
 tr  - trill
 T   - tap
 TP  - trem. picking
 PM  - palm muting
\n/  - tremolo bar dip; n = amount to dip
 \n  - tremolo bar down
 n/  - tremolo bar up
/n\  - tremolo bar inverted dip
 =   - hold bend; also acts as connecting device for hammers/pulls
 <>  - volume swell (louder/softer)
 x   - on rhythm slash represents muted slash
 o   - on rhythm slash represents single note slash

Misc Legend
-----------
 
  - bar

  - double bar

o - repeat start
o
 - repeat end
*
  - double bar (ending)
 :  - bar (freetime)
 $  - Segno
 &  - Coda
Tempo markers -  = BPM(8/16=s8/s16), where s8 = swing 8ths, s16 = swing 16ths


***************************************************************************************

***************************************************************************************
 


/
How To Set Up Higher Praise As Your Home Page
Copyright 1999, Higher Praise HigherPraise,Inc. All rights reserved. Terms of Use

Enjoy A Life Changing Experience

 
 
 
HigherPraise, Higher Praise, HigherPraise, Higher Praise, HigherPraise

Members..Sign Up. LogIn

 
 

Higher Praise Other Sites
 
 

HigherPraise.org/
Praise And Worship
www.higherpraise.org

HigherPraise.net
Christian Resources
www.higherpraise.net

HigherPraiseTube.com
Videos And Audios
www.higherpraisetube.com.


ChristianLyrics.org

Lyrics And Chrords
www.christianlyrics.org

ChristianChordsLyrics

Lyrics And Chrords
www.christianchordslyrics.com

ChristianChordLyrics

Lyrics And Chrords
www.christianchordlyrics.com

WorshipLyrics.org
10.000 Illustrations
www.worshiplyrics.org

WorshipLyrics.net
10.000 Illustrations
www.worshiplyrics.net

PraiseLyrics.com
PowerPoint Lyrics

www.praiselyrics.com

PraiseLyrics.org
PowerPoint Lyrics

www.praiselyrics.org

1GodTube.com
Chistian Videos

www1godtube..com

OneGodTube.com
Chistian Videos

www.onegodtube..com

 

/
Copyright 1999 - 2019, Higher Praise™ HigherPraise™,Inc. All rights reserved. Terms of Use