Higher Praise - Guitar Chords, Lyrics  GuitarTabs -  Praise nad Worship Music And Christian Songs

Higher Praise - Guitar Tabs, Guitar Chords, Lyrics
   Lyrics, Chords And Tabs
   Popular Lyrics Chords Tab
   Power Point Lyrics
   Praise & Worship Music
   Christian Music Videos
   15900 Videos & Audios
   Midi Files
   Worship Questions
   Christmas Chords, Lyrics
   Lyrics, Chords Tabs Rated

Sermon Outlines And Audio Sermons
   9344 Sermon Outlines
   N.T. Sermon Outlines
   O.T. Sermon Outlines
   Special Guest Outlines
   10.000 Illustrations
   Sunday School Studies
   Bible College Studies
   Greatest Preachers
   Bible Research Tools
Audio Sermons
   2895 Audio Sermons
   85 Sermon Videos
   291 Special Guests Serm

   Complete Audio Bible
Higher Praise Sunday School Teaching
   Children's NT Studies
   Children's OT Studies

   98 Children's Midis
   Gospel For Kids Movie
   Children's JESUS Film
Higher Praise Christian Video Library ,Videos
   Christian Television
   TBN TV Live
   15,000 Videos - HP Tube
   712 Youth Music Vids
  Christian Video Library
   Praise Videos #1 & #2
   85 Sermon Videos
   Prophecy Film -Videos
   JESUS Film -Video
   Childrens JESUS Film
   Gospel For Kids Movie
   Passion Of The Christ
   Noah, Sodom, Sinai, Ark
   Tsunami Videos Photos
News And Information
   Testimonies
   Submit Lyrics, Tabs, Serm
   10.000 Illustrations
   Bible College Course
   Clipart & Web Graphics
   Greatest Preachers
   Complete Talking Bible
   Christian Chat Rooms
   Links Church Resource
   HP Statement Of Faith
Download Clipart
   Audio Sermons
   Clipart & Web Graphics
   Church Administration
   Bible Study Software
   Screen Savers Software
   Verse A Day Software
   Educational Games
   Trade Center Photos

   Soft. Search Engine
Higher Praise News
   Current News
    Archived News
   Submit News
   Newsletter   Higher Praise Interact Prayer
   Prayer For All Needs
   
Submit Lyrics, Sermons
   
Contact Higher Praise
   
Advertising 
   Privacy Policy
//
He Died For You,  Click For Answer! This Is Who Jesus Is Video

'
 
0-9 A B C D E F G H I J K L M N O P Q R S T U V W X Y Z
.

//
Click For Printable...Version Of This File
 

How To Save A Life


by The Fray




How To Save A Life                    The Fray

Gtr I (D A D G B E) - 'Untitled'
Gtr II (D A D G B E) - 'Untitled'
Gtr III (E A D G B E) - 'Untitled'


    Q=122
    Gtr I
     E  E  E  Q   E  E  E    E  E  E  Q   E  E  E

------------------------
-----------------------


o-----------------------
-----------------------


-----10----10--10----10-
----10----10--10----10-


--------12--------12----
-------12--------12----


o-13--------------------
-12--------------------


------------------------
-----------------------



   Gtr II

    W                       W

------------------------
-----------------------


o-11--------------------
-13--------------------


------------------------
-----------------------


------------------------
-----------------------


o-----------------------
-----------------------


------------------------
-----------------------



   E  E  E  Q   E  E  E    E  E  E  E  E  E  E  E   5x

-----------------------
---------------------------


-----------------------
--------------------------o


----10----10--10----10-
----10----10----10----10---


-------12--------12----
-------12----10----12------


-13--------------------
-12-----------------------o


-----------------------
---------------------------



  W                       H           H            5x

-10--------------------
---------------------------


-----------------------
-10----------13-----------o


-----------------------
---------------------------


-----------------------
---------------------------


-----------------------
--------------------------o


-----------------------
---------------------------



     Q    Q    Q    Q      Q    Q    Q    Q

----------------------
---------------------


o-11---15---11---15---
-13---15---13---15---


----------------------
-14------------------


--17------------------
-15------------------


o-18------------------
---------------------


----------------------
---------------------



    Q.     Q    Q    E    Q.     Q    Q    E

----------------------
---------------------


o---------------------
---------------------


----------------------
---------------------


----------------------
---------------------


o--6------6----6----6-
--8------8----8----8-


---1------1----1----1-
--3------3----3----3-



   Gtr III

    W                     W

----------------------
---------------------


o-^8------------------
---------------------


--^8------------------
-^2------------------


--^8------------------
-^3------------------


o-^6------------------
-^3------------------


----------------------
-^1------------------



   Q    Q     Q     Q       Q    Q     Q    Q

------------------------
-------------------------


-15---15----11----15----
------15----13---18-----o


-15---------------------
-19---------14-----------


-17---------------------
-15---------15-----------


------------------------
-17---------------------o


------------------------
-------------------------



  Q.      Q     Q     E    Q.      E  Q.      E

------------------------
-------------------------


------------------------
------------------------o


------------------------
-------------------------


------------------------
-------------------------


-10------10----10----10-
-13------13-12------12--o


--5-------5-----5-----5-
--8-------8--7-------7---



  W                        H          H

------------------------
-------------------------


------------------------
-^3---------------------o


-^3---------------------
-^3---------^2-----------


-^5---------------------
-^3---------^3-----------


-^5---------------------
-^1---------^3----------o


-^3---------------------
------------^1-----------



   E  E  E  Q    E  E  E    E  E  E   Q       E   E  E

------------------------
-----------------------------

------------------------
-----------------------------

----10----10---10----10-
----10-----10------10-----10-

-------12---------12----
-------12--------------12----

-13---------------------
-12--------------------------

------------------------
-----------------------------



  W                        W

------------------------
-----------------------------

-11---------------------
-13--------------------------

------------------------
-----------------------------

------------------------
-----------------------------

------------------------
-----------------------------

------------------------
-----------------------------



 Gtr III

  Q     Q    Q     Q       Q     E   E   E   E   Q

------------------------
-----------------------------

------------------------
-----------------------------

--------0---------------
-----------------------------

-------------3-----1----
--0----(1)-(3)-(1)-(3)--0----

------------------------
-----------------------------

------------------------
-----------------------------



   E  E  E  Q    E  E  E    E   E  E  E  E  E  E  E

------------------------
--------------------------

------------------------
--------------------------

----10----10---10----10-
-----10----10----10----10-

-------12---------12----
--------12----10----12----

-13---------------------
-12-----------------------

------------------------
--------------------------



  W                        H            H

-10---------------------
--------------------------

------------------------
-10-----------13----------

------------------------
--------------------------

------------------------
--------------------------

------------------------
--------------------------

------------------------
--------------------------



  Q     Q    Q     Q      +W

------------------------
--------------------------

------------------------
--------------------------

------------------------
--------------------------

--------0----3----------
--------------------------

-------------------1----
-(1)----------------------

------------------------
--------------------------



     E  E  E  Q   E  E  E    E  E  E  Q   E  E  E

------------------------
-----------------------


o-----------------------
-----------------------


-----10----10--10----10-
----10----10--10----10-


--------12--------12----
-------12--------12----


o-13--------------------
-12--------------------


------------------------
-----------------------



    W                       W

------------------------
-----------------------


o-11--------------------
-13--------------------


------------------------
-----------------------


------------------------
-----------------------


o-----------------------
-----------------------


------------------------
-----------------------



   E  E  E  Q   E  E  E    E  E  E  E  E  E  E  E

-----------------------
---------------------------


-----------------------
--------------------------o


----10----10--10----10-
----10----10----10----10---


-------12--------12----
-------12----10----12------


-13--------------------
-12-----------------------o


-----------------------
---------------------------



  W                       H           H

-10--------------------
---------------------------


-----------------------
-10----------13-----------o


-----------------------
---------------------------


-----------------------
---------------------------


-----------------------
--------------------------o


-----------------------
---------------------------



   E  E  E  Q    E  E  E    E  E  E  Q   E  E  E

------------------------
-----------------------

------------------------
-----------------------

----10----10---10----10-
----10----10--10----10-

-------12---------12----
-------12--------12----

-13---------------------
-12--------------------

------------------------
-----------------------



  W                        W

------------------------
-----------------------

-11---------------------
-13--------------------

------------------------
-----------------------

------------------------
-----------------------

------------------------
-----------------------

------------------------
-----------------------



  Q     Q    Q     Q       W

------------------------
-----------------------

------------------------
-----------------------

--------0---------------
-----------------------

-------------3-----1----
--0--------------------

------------------------
-----------------------

------------------------
-----------------------



   E  E  E  Q   E  E  E    E  E  E  E  E  E  E  E

-----------------------
-------------------------

-----------------------
-------------------------

----10----10--10----10-
----10----10----10----10-

-------12--------12----
-------12----10----12----

-13--------------------
-12----------------------

-----------------------
-------------------------



  W                       H           H

-10--------------------
-------------------------

-----------------------
-10----------13----------

-----------------------
-------------------------

-----------------------
-------------------------

-----------------------
-------------------------

-----------------------
-------------------------



-----------------------
-------------------------

-----------------------
-------------------------

-----------------------
-------------------------

-----------------------
-------------------------

-----------------------
-------------------------

-----------------------
-------------------------



   E  E  E  Q     E  E  E    E  E  E  Q     E  E  E

-------------------------
-------------------------

-------------------------
-------------------------

----10----10----10----10-
----10----10----10----10-

-------12----------12----
-------12----------12----

-13----------------------
-12----------------------

-------------------------
-------------------------



  Q     Q     Q     Q       Q     Q     Q     Q

-------13----13----13----
-13----------------------

-11----------------------
-------13----16----15----

-------------------------
-------------------------

-------------------------
-------------------------

-------------------------
-------------------------

-------------------------
-------------------------



  Q     Q     Q     Q       W

-------------------------
-------------------------

-------------------------
-------------------------

--------0----------------
-------------------------

--------------3-----1----
--0----------------------

-------------------------
-------------------------

-------------------------
-------------------------



   E  E  E  Q     E  E  E    E  E  E  E  E  E  E  E

-------------------------
-------------------------

-------------------------
-------------------------

----10----10----10----10-
----10----10----10----10-

-------12----------12----
-------12----10----12----

-13----------------------
-12----------------------

-------------------------
-------------------------



  Q     Q     Q     Q       Q     Q     Q     Q

-------13----13----13----
-13----------------------

-11----------------------
-------13----16----15----

-------------------------
-------------------------

-------------------------
-------------------------

-------------------------
-------------------------

-------------------------
-------------------------



-------------------------
-------------------------

-------------------------
-------------------------

-------------------------
-------------------------

-------------------------
-------------------------

-------------------------
-------------------------

-------------------------
-------------------------



     Q    Q    Q    Q      Q    Q    Q    Q

----------------------
---------------------


o-11---15---11---15---
-13---15---13---15---


----------------------
-14------------------


--17------------------
-15------------------


o-18------------------
---------------------


----------------------
---------------------



    Q.     Q    Q    E    Q.     Q    Q    E

----------------------
---------------------


o---------------------
---------------------


----------------------
---------------------


----------------------
---------------------


o--6------6----6----6-
--8------8----8----8-


---1------1----1----1-
--3------3----3----3-



    W                     W

----------------------
---------------------


o-^8------------------
---------------------


--^8------------------
-^2------------------


--^8------------------
-^3------------------


o-^6------------------
-^3------------------


----------------------
-^1------------------



   Q    Q     Q     Q       Q    Q     Q    Q

------------------------
-------------------------


-15---15----11----15----
------15----13---18-----o


-15---------------------
-19---------14-----------


-17---------------------
-15---------15-----------


------------------------
-17---------------------o


------------------------
-------------------------



  Q.      Q     Q     E    Q.      E  Q.      E

------------------------
-------------------------


------------------------
------------------------o


------------------------
-------------------------


------------------------
-------------------------


-10------10----10----10-
-13------13-12------12--o


--5-------5-----5-----5-
--8-------8--7-------7---



  W                        H          H

------------------------
-------------------------


------------------------
-^3---------------------o


-^3---------------------
-^3---------^2-----------


-^5---------------------
-^3---------^3-----------


-^5---------------------
-^1---------^3----------o


-^3---------------------
------------^1-----------



   E  E  E  Q    E  E  E    E  E  E   Q       E   E  E

------------------------
-----------------------------

------------------------
-----------------------------

----10----10---10----10-
----10-----10------10-----10-

-------12---------12----
-------12--------------12----

-13---------------------
-12--------------------------

------------------------
-----------------------------



  W                        W

------------------------
-----------------------------

-11---------------------
-13--------------------------

------------------------
-----------------------------

------------------------
-----------------------------

------------------------
-----------------------------

------------------------
-----------------------------



  Q     Q    Q     Q       Q     E   E   E   E   Q

------------------------
-----------------------------

------------------------
-----------------------------

--------0---------------
-----------------------------

-------------3-----1----
--0----(1)-(3)-(1)-(3)--0----

------------------------
-----------------------------

------------------------
-----------------------------



   E  E  E  Q    E  E  E    E   E  E  E  E  E  E  E

------------------------
--------------------------

------------------------
--------------------------

----10----10---10----10-
-----10----10----10----10-

-------12---------12----
--------12----10----12----

-13---------------------
-12-----------------------

------------------------
--------------------------



  W                        H            H

-10---------------------
--------------------------

------------------------
-10-----------13----------

------------------------
--------------------------

------------------------
--------------------------

------------------------
--------------------------

------------------------
--------------------------



  Q     Q    Q     Q      +W

------------------------
--------------------------

------------------------
--------------------------

------------------------
--------------------------

--------0----3----------
--------------------------

-------------------1----
-(1)----------------------

------------------------
--------------------------



     E  E  E  Q   E  E  E    E  E  E  Q   E  E  E

------------------------
-----------------------


o-----------------------
-----------------------


-----10----10--10----10-
----10----10--10----10-


--------12--------12----
-------12--------12----


o-13--------------------
-12--------------------


------------------------
-----------------------



    W                       W

------------------------
-----------------------


o-11--------------------
-13--------------------


------------------------
-----------------------


------------------------
-----------------------


o-----------------------
-----------------------


------------------------
-----------------------



   E  E  E  Q   E  E  E    E  E  E  E  E  E  E  E

-----------------------
---------------------------


-----------------------
--------------------------o


----10----10--10----10-
----10----10----10----10---


-------12--------12----
-------12----10----12------


-13--------------------
-12-----------------------o


-----------------------
---------------------------



  W                       H           H

-10--------------------
---------------------------


-----------------------
-10----------13-----------o


-----------------------
---------------------------


-----------------------
---------------------------


-----------------------
--------------------------o


-----------------------
---------------------------



   E  E  E  Q    E  E  E    E  E  E  Q   E  E  E

------------------------
-----------------------

------------------------
-----------------------

----10----10---10----10-
----10----10--10----10-

-------12---------12----
-------12--------12----

-13---------------------
-12--------------------

------------------------
-----------------------



  W                        W

------------------------
-----------------------

-11---------------------
-13--------------------

------------------------
-----------------------

------------------------
-----------------------

------------------------
-----------------------

------------------------
-----------------------



  Q     Q    Q     Q       W

------------------------
-----------------------

------------------------
-----------------------

--------0---------------
-----------------------

-------------3-----1----
--0--------------------

------------------------
-----------------------

------------------------
-----------------------



   E  E  E  Q   E  E  E    E  E  E  E  E  E  E  E

-----------------------
-------------------------

-----------------------
-------------------------

----10----10--10----10-
----10----10----10----10-

-------12--------12----
-------12----10----12----

-13--------------------
-12----------------------

-----------------------
-------------------------



  W                       H           H

-10--------------------
-------------------------

-----------------------
-10----------13----------

-----------------------
-------------------------

-----------------------
-------------------------

-----------------------
-------------------------

-----------------------
-------------------------



-----------------------
-------------------------

-----------------------
-------------------------

-----------------------
-------------------------

-----------------------
-------------------------

-----------------------
-------------------------

-----------------------
-------------------------



   E  E  E  Q     E  E  E    E  E  E  Q     E  E  E

-------------------------
-------------------------

-------------------------
-------------------------

----10----10----10----10-
----10----10----10----10-

-------12----------12----
-------12----------12----

-13----------------------
-12----------------------

-------------------------
-------------------------



  Q     Q     Q     Q       Q     Q     Q     Q

-------13----13----13----
-13----------------------

-11----------------------
-------13----16----15----

-------------------------
-------------------------

-------------------------
-------------------------

-------------------------
-------------------------

-------------------------
-------------------------



  Q     Q     Q     Q       W

-------------------------
-------------------------

-------------------------
-------------------------

--------0----------------
-------------------------

--------------3-----1----
--0----------------------

-------------------------
-------------------------

-------------------------
-------------------------



   E  E  E  Q     E  E  E    E  E  E  E  E  E  E  E

-------------------------
-------------------------

-------------------------
-------------------------

----10----10----10----10-
----10----10----10----10-

-------12----------12----
-------12----10----12----

-13----------------------
-12----------------------

-------------------------
-------------------------



  Q     Q     Q     Q       Q     Q     Q     Q

-------13----13----13----
-13----------------------

-11----------------------
-------13----16----15----

-------------------------
-------------------------

-------------------------
-------------------------

-------------------------
-------------------------

-------------------------
-------------------------



-------------------------
-------------------------

-------------------------
-------------------------

-------------------------
-------------------------

-------------------------
-------------------------

-------------------------
-------------------------

-------------------------
-------------------------



     Q    Q    Q    Q      Q    Q    Q    Q

----------------------
---------------------


o-11---15---11---15---
-13---15---13---15---


----------------------
-14------------------


--17------------------
-15------------------


o-18------------------
---------------------


----------------------
---------------------



    Q.     Q    Q    E    Q.     Q    Q    E

----------------------
---------------------


o---------------------
---------------------


----------------------
---------------------


----------------------
---------------------


o--6------6----6----6-
--8------8----8----8-


---1------1----1----1-
--3------3----3----3-



    W                     W

----------------------
---------------------


o-^8------------------
---------------------


--^8------------------
-^2------------------


--^8------------------
-^3------------------


o-^6------------------
-^3------------------


----------------------
-^1------------------



   Q    Q     Q     Q       Q    Q     Q    Q      4x

------------------------
-------------------------


-15---15----11----15----
------15----13---18-----o


-15---------------------
-19---------14-----------


-17---------------------
-15---------15-----------


------------------------
-17---------------------o


------------------------
-------------------------



  Q.      Q     Q     E    Q.      E  Q.      E   4x

------------------------
-------------------------


------------------------
------------------------o


------------------------
-------------------------


------------------------
-------------------------


-10------10----10----10-
-13------13-12------12--o


--5-------5-----5-----5-
--8-------8--7-------7---



  W                        H          H           4x

------------------------
-------------------------


------------------------
-^3---------------------o


-^3---------------------
-^3---------^2-----------


-^5---------------------
-^3---------^3-----------


-^5---------------------
-^1---------^3----------o


-^3---------------------
------------^1-----------



   E  E  E  Q   E  E  E    E  E  E  Q   E  E  E

-----------------------
-----------------------

-----------------------
-----------------------

----10----10--10----10-
----10----10--10----10-

-------12--------12----
-------12--------12----

-13--------------------
-12--------------------

-----------------------
-----------------------



  W                       W

-----------------------
-----------------------

-11--------------------
-13--------------------

-----------------------
-----------------------

-----------------------
-----------------------

-----------------------
-----------------------

-----------------------
-----------------------



   E  E  E  Q   E  E  E    E  E  E  E  E  E  E  E

-----------------------
-------------------------

-----------------------
-------------------------

----10----10--10----10-
----10----10----10----10-

-------12--------12----
-------12----10----12----

-13--------------------
-12----------------------

-----------------------
-------------------------



  W                       H           H

-10--------------------
-------------------------

-----------------------
-10----------13----------

-----------------------
-------------------------

-----------------------
-------------------------

-----------------------
-------------------------

-----------------------
-------------------------



   E  E  E  Q     E  E  E    E  E  E  Q     E  E  E

-------------------------
-------------------------

-------------------------
-------------------------

----10----10----10----10-
----10----10----10----10-

-------12----------12----
-------12----------12----

-13----------------------
-12----------------------

-------------------------
-------------------------



  Q     Q     Q     Q       Q     Q     Q     Q

-------13----13----13----
-13----------------------

-11----------------------
-------13----16----15----

-------------------------
-------------------------

-------------------------
-------------------------

-------------------------
-------------------------

-------------------------
-------------------------



   E  E  E  Q     E  E  E    E  E  E  E  E  E  E  E

-------------------------
-------------------------

-------------------------
-------------------------

----10----10----10----10-
----10----10----10----10-

-------12----------12----
-------12----10----12----

-13----------------------
-12----------------------

-------------------------
-------------------------



  Q     Q     Q     Q       Q     Q     Q     Q

-------13----13----13----
-13----------------------

-11----------------------
-------13----16----15----

-------------------------
-------------------------

-------------------------
-------------------------

-------------------------
-------------------------

-------------------------
-------------------------



     Q    Q    Q    Q      Q    Q    Q    Q

----------------------
---------------------


o-11---15---11---15---
-13---15---13---15---


----------------------
-14------------------


--17------------------
-15------------------


o-18------------------
---------------------


----------------------
---------------------



    Q.     Q    Q    E    Q.     Q    Q    E

----------------------
---------------------


o---------------------
---------------------


----------------------
---------------------


----------------------
---------------------


o--6------6----6----6-
--8------8----8----8-


---1------1----1----1-
--3------3----3----3-



    W                     W

----------------------
---------------------


o-^8------------------
---------------------


--^8------------------
-^2------------------


--^8------------------
-^3------------------


o-^6------------------
-^3------------------


----------------------
-^1------------------



   Q    Q     Q     Q       Q    Q     Q    Q      4x

------------------------
-------------------------


-15---15----11----15----
------15----13---18-----o


-15---------------------
-19---------14-----------


-17---------------------
-15---------15-----------


------------------------
-17---------------------o


------------------------
-------------------------



  Q.      Q     Q     E    Q.      E  Q.      E   4x

------------------------
-------------------------


------------------------
------------------------o


------------------------
-------------------------


------------------------
-------------------------


-10------10----10----10-
-13------13-12------12--o


--5-------5-----5-----5-
--8-------8--7-------7---



  W                        H          H           4x

------------------------
-------------------------


------------------------
-^3---------------------o


-^3---------------------
-^3---------^2-----------


-^5---------------------
-^3---------^3-----------


-^5---------------------
-^1---------^3----------o


-^3---------------------
------------^1-----------



   E  E  E  Q    E  E  E    E  E  E   Q       E   E  E

------------------------
-----------------------------

------------------------
-----------------------------

----10----10---10----10-
----10-----10------10-----10-

-------12---------12----
-------12--------------12----

-13---------------------
-12--------------------------

------------------------
-----------------------------



  W                        W

------------------------
-----------------------------

-11---------------------
-13--------------------------

------------------------
-----------------------------

------------------------
-----------------------------

------------------------
-----------------------------

------------------------
-----------------------------



  Q     Q    Q     Q       Q     E   E   E   E   Q

------------------------
-----------------------------

------------------------
-----------------------------

--------0---------------
-----------------------------

-------------3-----1----
--0----(1)-(3)-(1)-(3)--0----

------------------------
-----------------------------

------------------------
-----------------------------



   E  E  E  Q    E  E  E    E   E  E  E  E  E  E  E

------------------------
--------------------------

------------------------
--------------------------

----10----10---10----10-
-----10----10----10----10-

-------12---------12----
--------12----10----12----

-13---------------------
-12-----------------------

------------------------
--------------------------



  W                        H            H

-10---------------------
--------------------------

------------------------
-10-----------13----------

------------------------
--------------------------

------------------------
--------------------------

------------------------
--------------------------

------------------------
--------------------------



  Q     Q    Q     Q      +W

------------------------
--------------------------

------------------------
--------------------------

------------------------
--------------------------

--------0----3----------
--------------------------

-------------------1----
-(1)----------------------

------------------------
--------------------------



   E  E  E  Q     E  E  E    E  E  E   Q       E   E  E

-------------------------
-----------------------------

-------------------------
-----------------------------

----10----10----10----10-
----10-----10------10-----10-

-------12----------12----
-------12--------------12----

-13----------------------
-12--------------------------

-------------------------
-----------------------------



  Q     Q     Q     Q       Q     Q       Q       Q

-------13----13----13----
-13--------------------------

-11----------------------
-------13------16------15----

-------------------------
-----------------------------

-------------------------
-----------------------------

-------------------------
-----------------------------

-------------------------
-----------------------------



  Q     Q     Q     Q       Q     E   E   E   E   Q

-------------------------
-----------------------------

-------------------------
-----------------------------

--------0----------------
-----------------------------

--------------3-----1----
--0----(1)-(3)-(1)-(3)--0----

-------------------------
-----------------------------

-------------------------
-----------------------------



   E  E  E  Q     E  E  E    E   E  E  E  E  E  E  E

-------------------------
--------------------------

-------------------------
--------------------------

----10----10----10----10-
-----10----10----10----10-

-------12----------12----
--------12----10----12----

-13----------------------
-12-----------------------

-------------------------
--------------------------



  Q     Q     Q     Q       Q      Q     Q     Q

-------13----13----13----
-13-----------------------

-11----------------------
--------13----16----15----

-------------------------
--------------------------

-------------------------
--------------------------

-------------------------
--------------------------

-------------------------
--------------------------



  Q     Q     Q     Q      +W

-------------------------
--------------------------

-------------------------
--------------------------

-------------------------
--------------------------

--------0-----3----------
--------------------------

--------------------1----
-(1)----------------------

-------------------------
--------------------------



   E  E  E  Q   E  E  E    E  E  E  Q   E  E  E

-----------------------
-----------------------

-----------------------
-----------------------

----10----10--10----10-
----10----10--10----10-

-------12--------12----
-------12--------12----

-13--------------------
-12--------------------

-----------------------
-----------------------



  W                       W

-----------------------
-----------------------

-11--------------------
-13--------------------

-----------------------
-----------------------

-----------------------
-----------------------

-----------------------
-----------------------

-----------------------
-----------------------



   E  E  E  Q   E  E  E    E  E  E  E  E  E  E  E

-----------------------
-------------------------

-----------------------
-------------------------

----10----10--10----10-
----10----10----10----10-

-------12--------12----
-------12----10----12----

-13--------------------
-12----------------------

-----------------------
-------------------------



  W                       H           H

-10--------------------
-------------------------

-----------------------
-10----------13----------

-----------------------
-------------------------

-----------------------
-------------------------

-----------------------
-------------------------

-----------------------
-------------------------



   W           +W            +W            +W

-----------
-------------
-------------
---------

-----------
-------------
-------------
---------

-----------
-------------
-------------
---------

-----------
-------------
-------------
---------

-13--------
-(13)--------
-(13)--------
-(13)----

-----------
-------------
-------------
---------



  W           +W            +W            +W

-----------
-------------
-------------
---------

-11--------
-(11)--------
-(11)--------
-(11)----

-----------
-------------
-------------
---------

-----------
-------------
-------------
---------

-----------
-------------
-------------
---------

-----------
-------------
-------------
---------



 


/
How To Set Up Higher Praise As Your Home Page
Copyright 1999, Higher Praise HigherPraise,Inc. All rights reserved. Terms of Use

Enjoy A Life Changing Experience

 
 
 
HigherPraise, Higher Praise, HigherPraise, Higher Praise, HigherPraise

Members..Sign Up. LogIn

 
 

Higher Praise Other Sites
 
 

HigherPraise.org/
Praise And Worship
www.higherpraise.org

HigherPraise.net
Christian Resources
www.higherpraise.net

HigherPraiseTube.com
Videos And Audios
www.higherpraisetube.com.


ChristianLyrics.org

Lyrics And Chrords
www.christianlyrics.org

ChristianChordsLyrics

Lyrics And Chrords
www.christianchordslyrics.com

ChristianChordLyrics

Lyrics And Chrords
www.christianchordlyrics.com

WorshipLyrics.org
10.000 Illustrations
www.worshiplyrics.org

WorshipLyrics.net
10.000 Illustrations
www.worshiplyrics.net

PraiseLyrics.com
PowerPoint Lyrics

www.praiselyrics.com

PraiseLyrics.org
PowerPoint Lyrics

www.praiselyrics.org

1GodTube.com
Chistian Videos

www1godtube..com

OneGodTube.com
Chistian Videos

www.onegodtube..com

 

/
Copyright 1999 - 2019, Higher Praise™ HigherPraise™,Inc. All rights reserved. Terms of Use