Higher Praise - Guitar Chords, Lyrics  GuitarTabs -  Praise nad Worship Music And Christian Songs

Higher Praise - Guitar Tabs, Guitar Chords, Lyrics
   Lyrics, Chords And Tabs
   Popular Lyrics Chords Tab
   Power Point Lyrics
   Praise & Worship Music
   Christian Music Videos
   15900 Videos & Audios
   Midi Files
   Worship Questions
   Christmas Chords, Lyrics
   Lyrics, Chords Tabs Rated

Sermon Outlines And Audio Sermons
   9344 Sermon Outlines
   N.T. Sermon Outlines
   O.T. Sermon Outlines
   Special Guest Outlines
   10.000 Illustrations
   Sunday School Studies
   Bible College Studies
   Greatest Preachers
   Bible Research Tools
Audio Sermons
   2895 Audio Sermons
   85 Sermon Videos
   291 Special Guests Serm

   Complete Audio Bible
Higher Praise Sunday School Teaching
   Children's NT Studies
   Children's OT Studies

   98 Children's Midis
   Gospel For Kids Movie
   Children's JESUS Film
Higher Praise Christian Video Library ,Videos
   Christian Television
   TBN TV Live
   15,000 Videos - HP Tube
   712 Youth Music Vids
  Christian Video Library
   Praise Videos #1 & #2
   85 Sermon Videos
   Prophecy Film -Videos
   JESUS Film -Video
   Childrens JESUS Film
   Gospel For Kids Movie
   Passion Of The Christ
   Noah, Sodom, Sinai, Ark
   Tsunami Videos Photos
News And Information
   Testimonies
   Submit Lyrics, Tabs, Serm
   10.000 Illustrations
   Bible College Course
   Clipart & Web Graphics
   Greatest Preachers
   Complete Talking Bible
   Christian Chat Rooms
   Links Church Resource
   HP Statement Of Faith
Download Clipart
   Audio Sermons
   Clipart & Web Graphics
   Church Administration
   Bible Study Software
   Screen Savers Software
   Verse A Day Software
   Educational Games
   Trade Center Photos

   Soft. Search Engine
Higher Praise News
   Current News
    Archived News
   Submit News
   Newsletter   Higher Praise Interact Prayer
   Prayer For All Needs
   
Submit Lyrics, Sermons
   
Contact Higher Praise
   
Advertising 
   Privacy Policy
//
He Died For You,  Click For Answer! This Is Who Jesus Is Video

'
 
0-9 A B C D E F G H I J K L M N O P Q R S T U V W X Y Z
.

//
Click For Printable...Version Of This File
 

Hey John Whats Your Name Again


by The Devil Wears Prada




Gtr1
     W                   W                   W                 
E
-------------------
-------------------
-------------------

B
-------------------
-------------------
-------------------

G
-------------------
-------------------
-------------------

D
--0----------------
--L----------------
--8----------------

A
--0----------------
--L----------------
--8----------------

D
--0----------------
--L----------------
--8----------------



  W                   W                   W                   W                 
-------------------
-------------------
-------------------
-------------------

-------------------
-------------------
-------------------
-------------------

-------------------
-------------------
-------------------
-------------------

--5----------------
--0----------------
--L----------------
--8----------------

--5----------------
--0----------------
--L----------------
--8----------------

--5----------------
--0----------------
--L----------------
--8----------------



                         PM PM PM PM     PM PM PM PM    PM PM  
  W                   E  S  S  S  S   E  S  S  S  S  E  S  S   
-------------------
------------------------------------------

-------------------
------------------------------------------

-------------------
------------------------------------------

--5----------------
------------------------------------------

--5----------------
--8--------------10--------------8--------

--5----------------
-----0--0--0--0------0--0--0--0-----0--0--



     PM PM PM PM    PM PM PM PM     PM PM  
  E  S  S  S  S  E  S  S  S  S   E  S  S   
------------------------------------------

------------------------------------------

------------------------------------------

------------------------------------------

--7--------------8--------------10--------

-----0--0--0--0-----0--0--0--0------0--0--



     PM PM PM PM     PM PM PM PM    PM PM                                
  E  S  S  S  S   E  S  S  S  S  E  S  S     E  S S  E  S S E  E  E  E   
------------------------------------------
-----------------------------

------------------------------------------
-----------------------------

------------------------------------------
-----------------------------

------------------------------------------
--8--7-5-10--8-7----------8--

--8--------------10--------------8--------
-----------------8--7--8-----

-----0--0--0--0------0--0--0--0-----0--0--
-----------------------------



     PM PM PM PM     PM PM PM PM    PM PM  
  E  S  S  S  S   E  S  S  S  S  E  S  S   
------------------------------------------

------------------------------------------

------------------------------------------

------------------------------------------

--8--------------10--------------8--------

-----0--0--0--0------0--0--0--0-----0--0--



     PM PM PM PM    PM PM PM PM     PM PM  
  E  S  S  S  S  E  S  S  S  S   E  S  S   
------------------------------------------

------------------------------------------

------------------------------------------

------------------------------------------

--7--------------8--------------10--------

-----0--0--0--0-----0--0--0--0------0--0--



     PM PM PM PM     PM PM PM PM    PM PM                                
  E  S  S  S  S   E  S  S  S  S  E  S  S     E  S S  E  S S E  E  E  E   
------------------------------------------
-----------------------------

------------------------------------------
-----------------------------

------------------------------------------
-----------------------------

------------------------------------------
--8--7-5-10--8-7----------8--

--8--------------10--------------8--------
-----------------8--7--8-----

-----0--0--0--0------0--0--0--0-----0--0--
-----------------------------



   E   E   E   E   E   E   E   E      E   E   E   E   E   E   E   E   
----------------------------------
----------------------------------

----------------------------------
----------------------------------

--10--10--10--10--10--10--10--10--
--10--10--10--10--10--10--10--10--

---x---x---x---x---x---x---x---x--
---x---x---x---x---x---x---x---x--

---8---8---8---8---8---8---8---8--
---8---8---8---8---8---8---8---8--

----------------------------------
----------------------------------



   E   E   E   E   E   E   E   E      E   E   E   E   E   E   E   E   
----------------------------------
----------------------------------

----------------------------------
----------------------------------

--12--12--12--12--12--12--12--12--
--12--12--12--12--12--12--12--12--

---x---x---x---x---x---x---x---x--
---x---x---x---x---x---x---x---x--

--10--10--10--10--10--10--10--10--
--10--10--10--10--10--10--10--10--

----------------------------------
----------------------------------



  E  E  E  E  E  E  E  E     E  E  E  E  E  E  E  E   
--------------------------
--------------------------

--------------------------
--------------------------

--9--9--9--9--9--9--9--9--
--9--9--9--9--9--9--9--9--

--x--x--x--x--x--x--x--x--
--x--x--x--x--x--x--x--x--

--7--7--7--7--7--7--7--7--
--7--7--7--7--7--7--7--7--

--------------------------
--------------------------



         PM    PM    PM PM                      
  Q.     E  E  E  E  S  S     W                 
---------------------------
-------------------

---------------------------
-------------------

---------------------------
-------------------

--0------------------------
--0----------------

--0------0-----0-----0--0--
--0----------------

--0------0-----0-----0--0--
--0----------------



   E   E   E   E   E   E   E   E      E   E   E   E   E   E   E   E   
----------------------------------
----------------------------------

----------------------------------
----------------------------------

--10--10--10--10--10--10--10--10--
--10--10--10--10--10--10--10--10--

---x---x---x---x---x---x---x---x--
---x---x---x---x---x---x---x---x--

---8---8---8---8---8---8---8---8--
---8---8---8---8---8---8---8---8--

----------------------------------
----------------------------------



  E  E  E  E  E  E  E  E     E  E  E  E  E  E  E  E   
--------------------------
--------------------------

--------------------------
--------------------------

--9--9--9--9--9--9--9--9--
--9--9--9--9--9--9--9--9--

--x--x--x--x--x--x--x--x--
--x--x--x--x--x--x--x--x--

--7--7--7--7--7--7--7--7--
--7--7--7--7--7--7--7--7--

--------------------------
--------------------------



  E  E  E  E  E  E  E  E     E  E  E  E  E  E  E  E   
--------------------------
--------------------------

--------------------------
--------------------------

--7--7--7--7--7--7--7--7--
--7--7--7--7--7--7--7--7--

--x--x--x--x--x--x--x--x--
--x--x--x--x--x--x--x--x--

--5--5--5--5--5--5--5--5--
--5--5--5--5--5--5--5--5--

--------------------------
--------------------------



   E   E   E   E  E  E  E  E     E  E  E  E  E  E  E  E   
------------------------------
--------------------------

------------------------------
--------------------------

--10--10--10--10--9--9--9--9--
--7--7--7--7--5--5--5--5--

---x---x---x---x--x--x--x--x--
--x--x--x--x--x--x--x--x--

---8---8---8---8--7--7--7--7--
--5--5--5--5--3--3--3--3--

------------------------------
--------------------------



   E   E   E   E   E   E   E   E      E   E   E   E   E   E   E   E   
----------------------------------
----------------------------------

----------------------------------
----------------------------------

--10--10--10--10--10--10--10--10--
--10--10--10--10--10--10--10--10--

---x---x---x---x---x---x---x---x--
---x---x---x---x---x---x---x---x--

---8---8---8---8---8---8---8---8--
---8---8---8---8---8---8---8---8--

----------------------------------
----------------------------------



   E   E   E   E   E   E   E   E      E   E   E   E   E   E   E   E   
----------------------------------
----------------------------------

----------------------------------
----------------------------------

--12--12--12--12--12--12--12--12--
--12--12--12--12--12--12--12--12--

---x---x---x---x---x---x---x---x--
---x---x---x---x---x---x---x---x--

--10--10--10--10--10--10--10--10--
--10--10--10--10--10--10--10--10--

----------------------------------
----------------------------------



   E   E   E   E   E   E   E   E      E   E   E   E   E   E   E   E   
----------------------------------
----------------------------------

----------------------------------
----------------------------------

--14--14--14--14--14--14--14--14--
--14--14--14--14--14--14--14--14--

---x---x---x---x---x---x---x---x--
---x---x---x---x---x---x---x---x--

--12--12--12--12--12--12--12--12--
--12--12--12--12--12--12--12--12--

----------------------------------
----------------------------------



         PM    PM    PM PM                                              
  Q.     E  E  E  E  S  S     W                   Q    E  Q.      Q     
---------------------------
-------------------
-----------------------

---------------------------
-------------------
-----------------------

---------------------------
-------------------
-----------------------

--0------------------------
--0----------------
----------8~-----------

--0------0-----0-----0--0--
--0----------------
--0---------------5----

--0------0-----0-----0--0--
--0----------------
--0--------------------



  Q    E  Q       E    Q       Q    E  Q.      Q       E  E  E  E  E  E  E  E   
----------------------------
-----------------------
--------------------------

----------------------------
-----------------------
--------------------------

----------------------------
-----------------------
--8--8--8-----7--7--7--7--

----------7~----------------
----------8~-----------
--x--x--x-----x--x--x--x--

--8-------------(12)S--1----
--0---------------5----
--6--6--6-----5--5--5--5--

--8-------------------------
--0--------------------
-----------0--------------



  Q    E  Q.      Q       Q    E  Q       E    Q       Q    E  Q.      Q     
-----------------------
----------------------------
-----------------------

-----------------------
----------------------------
-----------------------

-----------------------
----------------------------
-----------------------

----------8~-----------
----------7~----------------
----------8~-----------

--0---------------5----
--8-------------(12)S--1----
--0---------------5----

--0--------------------
--8-------------------------
--0--------------------



  E  E  E  E  E  E  E  E     Q    E  Q.      Q       Q    E  Q       E    Q     
--------------------------
-----------------------
----------------------------

--------------------------
-----------------------
----------------------------

--8--8--8--8--7--7--7--7--
-----------------------
----------------------------

--x--x--x--x--x--x--x--x--
----------8~-----------
----------7~----------------

--6--6--6--6--5--5--5--5--
--0---------------5----
--8-------------(12)S--1----

--------------------------
--0--------------------
--8-------------------------



  Q    E  Q.      Q       E  E  E  E  E  E  E  E     Q    E  Q.      Q     
-----------------------
--------------------------
-----------------------

-----------------------
--------------------------
-----------------------

-----------------------
--8--8--8--8--7--7--7--7--
-----------------------

----------8~-----------
--x--x--x--x--x--x--x--x--
----------8~-----------

--0---------------5----
--6--6--6--6--5--5--5--5--
--0---------------5----

--0--------------------
--------------------------
--0--------------------



  Q    E  Q       E    Q       Q    E  Q.      Q       E  E  E  E  E  E  E  E   
----------------------------
-----------------------
--------------------------

----------------------------
-----------------------
--------------------------

----------------------------
-----------------------
--8--8--8--8--7--7--7--7--

----------7~----------------
----------8~-----------
--x--x--x--x--x--x--x--x--

--8-------------(12)S--1----
--0---------------5----
--6--6--6--6--5--5--5--5--

--8-------------------------
--0--------------------
--------------------------



              W                   W                   W                 
-----
-----
-------------------
-------------------
--0----------------

-----
-----
-------------------
-------------------
--0----------------

-----
-----
-------------------
-------------------
--0----------------

-----
-----
--0----------------
--L----------------
--0----------------

-----
-----
--0----------------
--L----------------
--0----------------

-----
-----
--0----------------
--L----------------
--0----------------



  W                                                         
--L----------------
-------------------
-------------------

--L----------------
-------------------
-------------------

--L----------------
-------------------
-------------------

--L----------------
-------------------
-------------------

--L----------------
-------------------
-------------------

--L----------------
-------------------
-------------------



  PM           PM      PM                  PM           PM    
  H.           Q       W                   H.           Q     
--------------------
-------------------
--------------------

--------------------
-------------------
--------------------

--------------------
-------------------
--------------------

--------------------
-------------------
--------------------

--0------------0----
--0----------------
--0------------0----

--0------------0----
--0----------------
--0------------0----



                             PM           PM      PM                
  E  E  E  E  E  E  E  E     H.           Q       W                 
--------------------------
--------------------
-------------------

--------------------------
--------------------
-------------------

--------------------------
--------------------
-------------------

--0-----0-----0-----0-----
--------------------
-------------------

--0-----0-----0-----0-----
--0------------0----
--0----------------

--0-----0-----0-----0-----
--0------------0----
--0----------------



  PM           PM                                                  PM PM PM PM  
  H.           Q       E  E  E  E  E  E  E  E     E  E  E  E  Q    S  S  S  S   
--------------------
--------------------------
-------------------------------

--------------------
--------------------------
-------------------------------

--------------------
--------------------------
-------------------------------

--------------------
--0-----0-----0-----0-----
--0-----0----------------------

--0------------0----
--0-----0-----0-----0-----
--0-----0----------0--0--0--0--

--0------------0----
--0-----0-----0-----0-----
--0-----0----------0--0--0--0--



                                              PM PM PM PM  
  E  E  E  E  E  E  E  E     E  E  E  E  Q    S  S  S  S   
--------------------------
-------------------------------

--------------------------
-------------------------------

--------------------------
-------------------------------

--0-----0-----0-----0-----
--0-----0----------------------

--0-----0-----0-----0-----
--0-----0----------0--0--0--0--

--0-----0-----0-----0-----
--0-----0----------0--0--0--0--



                                              PM PM PM PM  
  E  E  E  E  E  E  E  E     E  E  E  E  Q    S  S  S  S   
--------------------------
-------------------------------

--------------------------
-------------------------------

--------------------------
-------------------------------

--0-----0-----0-----0-----
--0-----0----------------------

--0-----0-----0-----0-----
--0-----0----------0--0--0--0--

--0-----0-----0-----0-----
--0-----0----------0--0--0--0--



                                              PM PM PM PM  
  E  E  E  E  E  E  E  E     E  E  E  E  Q    S  S  S  S   
--------------------------
-------------------------------

--------------------------
-------------------------------

--------------------------
-------------------------------

--0-----0-----0-----0-----
--0-----0----------------------

--0-----0-----0-----0-----
--0-----0----------0--0--0--0--

--0-----0-----0-----0-----
--0-----0----------0--0--0--0--



  E  E  E  E  E  E  E  E     E  E  E  E  E  E  E  E   
--------------------------
--------------------------

--------------------------
--------------------------

--------------------------
--7--7--7--7--7--7--7--7--

--0-----0-----0-----0-----
--x--x--x--x--x--x--x--x--

--0-----0-----0-----0-----
--5--5--5--5--5--5--5--5--

--0-----0-----0-----0-----
--------------------------



  E  E  E  E  E  E  E  E     E  E  E  E  E  E  E  E   
--------------------------
--------------------------

--------------------------
--------------------------

--7--7--7--7--7--7--7--7--
--9--9--9--9--9--9--9--9--

--x--x--x--x--x--x--x--x--
--x--x--x--x--x--x--x--x--

--5--5--5--5--5--5--5--5--
--7--7--7--7--7--7--7--7--

--------------------------
--------------------------



  E  E  E  E  E  E  E  E      E   E   E   E   E   E   E   E   
--------------------------
----------------------------------

--------------------------
----------------------------------

--9--9--9--9--9--9--9--9--
--12--12--12--12--12--12--12--12--

--x--x--x--x--x--x--x--x--
---x---x---x---x---x---x---x---x--

--7--7--7--7--7--7--7--7--
--10--10--10--10--10--10--10--10--

--------------------------
----------------------------------



   E   E   E   E   E   E   E   E      E   E   E   E   E   E   E   E   
----------------------------------
----------------------------------

----------------------------------
----------------------------------

--12--12--12--12--12--12--12--12--
--15--15--15--15--15--15--15--15--

---x---x---x---x---x---x---x---x--
---x---x---x---x---x---x---x---x--

--10--10--10--10--10--10--10--10--
--13--13--13--13--13--13--13--13--

----------------------------------
----------------------------------



   E   E   E   E   E   E   E   E      E   E   E   E   E   E   E   E   
----------------------------------
----------------------------------

----------------------------------
----------------------------------

--15--15--15--15--15--15--15--15--
--10--10--10--10--10--10--10--10--

---x---x---x---x---x---x---x---x--
---x---x---x---x---x---x---x---x--

--13--13--13--13--13--13--13--13--
---8---8---8---8---8---8---8---8--

----------------------------------
----------------------------------



   E   E   E   E   E   E   E   E     E  E  E  E  E  E  E  E   
----------------------------------
--------------------------

----------------------------------
--------------------------

--10--10--10--10--10--10--10--10--
--9--9--9--9--9--9--9--9--

---x---x---x---x---x---x---x---x--
--x--x--x--x--x--x--x--x--

---8---8---8---8---8---8---8---8--
--7--7--7--7--7--7--7--7--

----------------------------------
--------------------------



  E  E  E  E  E  E  E  E     E  E  E  E  E  E  E  E   
--------------------------
--------------------------

--------------------------
--------------------------

--9--9--9--9--9--9--9--9--
--7--7--7--7--7--7--7--7--

--x--x--x--x--x--x--x--x--
--x--x--x--x--x--x--x--x--

--7--7--7--7--7--7--7--7--
--5--5--5--5--5--5--5--5--

--------------------------
--------------------------



  E  E  E  E  E  E  E  E     E  E  E  E  E  E  E  E   
--------------------------
--------------------------

--------------------------
--------------------------

--7--7--7--7--7--7--7--7--
--7--7--7--7--7--7--7--7--

--x--x--x--x--x--x--x--x--
--x--x--x--x--x--x--x--x--

--5--5--5--5--5--5--5--5--
--5--5--5--5--5--5--5--5--

--------------------------
--------------------------



   E   E   E   E   E   E   E   E      E   E   E   E   E   E   E   E   
----------------------------------
----------------------------------

----------------------------------
----------------------------------

--10--10--10--10--10--10--10--10--
--10--10--10--10--10--10--10--10--

---x---x---x---x---x---x---x---x--
---x---x---x---x---x---x---x---x--

---8---8---8---8---8---8---8---8--
---8---8---8---8---8---8---8---8--

----------------------------------
----------------------------------



   E   E   E   E   E   E   E   E     E  E  E  E  E  E  E  E   
----------------------------------
--------------------------

----------------------------------
--------------------------

--12--12--12--12--14--14--14--14--
--9--9--9--9--9--9--9--9--

---x---x---x---x---x---x---x---x--
--x--x--x--x--x--x--x--x--

--10--10--10--10--12--12--12--12--
--7--7--7--7--7--7--7--7--

----------------------------------
--------------------------



   E   E   E   E   E   E   E   E     E  E  E  E  E  E  E  E   
----------------------------------
--------------------------

----------------------------------
--------------------------

--10--10--10--10--12--12--12--12--
--7--7--7--7--7--7--7--7--

---x---x---x---x---x---x---x---x--
--x--x--x--x--x--x--x--x--

---8---8---8---8--10--10--10--10--
--5--5--5--5--5--5--5--5--

----------------------------------
--------------------------



  E  E  E  E   E   E   E   E      E   E   E   E   E   E   E   E   
------------------------------
----------------------------------

------------------------------
----------------------------------

--9--9--9--9--10--10--10--10--
--17--17--17--17--17--17--17--17--

--x--x--x--x---x---x---x---x--
---x---x---x---x---x---x---x---x--

--7--7--7--7---8---8---8---8--
--15--15--15--15--15--15--15--15--

------------------------------
----------------------------------



   E   E   E   E   E   E   E   E      E   E   E   E   E   E   E   E   
----------------------------------
----------------------------------

----------------------------------
----------------------------------

--17--17--17--17--17--17--17--17--
--10--10--10--10--10--10--10--10--

---x---x---x---x---x---x---x---x--
---x---x---x---x---x---x---x---x--

--15--15--15--15--15--15--15--15--
---8---8---8---8---8---8---8---8--

----------------------------------
----------------------------------



   E   E   E   E   E   E   E   E     E  E  E  E  E  E  E  E   
----------------------------------
--------------------------

----------------------------------
--------------------------

--10--10--10--10--10--10--10--10--
--9--9--9--9--9--9--9--9--

---x---x---x---x---x---x---x---x--
--x--x--x--x--x--x--x--x--

---8---8---8---8---8---8---8---8--
--7--7--7--7--7--7--7--7--

----------------------------------
--------------------------



  E  E  E  E  E  E  E  E     E  E  E  E  E  E  E  E   
--------------------------
--------------------------

--------------------------
--------------------------

--9--9--9--9--9--9--9--9--
--7--7--7--7--7--7--7--7--

--x--x--x--x--x--x--x--x--
--x--x--x--x--x--x--x--x--

--7--7--7--7--7--7--7--7--
--5--5--5--5--5--5--5--5--

--------------------------
--------------------------



  E  E  E  E   E   E   E   E      E   E   E   E   E   E   E   E   
------------------------------
----------------------------------

------------------------------
----------------------------------

--9--9--9--9--10--10--10--10--
--17--17--17--17--17--17--17--17--

--x--x--x--x---x---x---x---x--
---x---x---x---x---x---x---x---x--

--7--7--7--7---8---8---8---8--
--15--15--15--15--15--15--15--15--

------------------------------
----------------------------------



   E   E   E   E   E   E   E   E      E   E   E   E   E   E   E   E   
----------------------------------
----------------------------------

----------------------------------
----------------------------------

--17--17--17--17--17--17--17--17--
--10--10--10--10--10--10--10--10--

---x---x---x---x---x---x---x---x--
---x---x---x---x---x---x---x---x--

--15--15--15--15--15--15--15--15--
---8---8---8---8---8---8---8---8--

----------------------------------
----------------------------------



   E   E   E   E   E   E   E   E     E  E  E  E  E  E  E  E   
----------------------------------
--------------------------

----------------------------------
--------------------------

--12--12--12--12--14--14--14--14--
--9--9--9--9--9--9--9--9--

---x---x---x---x---x---x---x---x--
--x--x--x--x--x--x--x--x--

--10--10--10--10--12--12--12--12--
--7--7--7--7--7--7--7--7--

----------------------------------
--------------------------



   E   E   E   E   E   E   E   E     E  E  E  E  E  E  E  E   
----------------------------------
--------------------------

----------------------------------
--------------------------

--10--10--10--10--12--12--12--12--
--7--7--7--7--7--7--7--7--

---x---x---x---x---x---x---x---x--
--x--x--x--x--x--x--x--x--

---8---8---8---8--10--10--10--10--
--5--5--5--5--5--5--5--5--

----------------------------------
--------------------------



  E  E  E  E   E   E   E   E      E   E   E   E   E   E   E   E   
------------------------------
----------------------------------

------------------------------
----------------------------------

--9--9--9--9--10--10--10--10--
--17--17--17--17--17--17--17--17--

--x--x--x--x---x---x---x---x--
---x---x---x---x---x---x---x---x--

--7--7--7--7---8---8---8---8--
--15--15--15--15--15--15--15--15--

------------------------------
----------------------------------



   E   E   E   E   E   E   E   E     Q.     Q.     Q     
----------------------------------
---------------------

----------------------------------
---------------------

--17--17--17--17--17--17--17--17--
---------------------

---x---x---x---x---x---x---x---x--
--0------0------0----

--15--15--15--15--15--15--15--15--
--0------0------0----

----------------------------------
--0------0------0----



   E   E   E   E   E   E   E   E     Q.     Q.     Q     
----------------------------------
---------------------

----------------------------------
---------------------

--14--14--14--14--14--14--14--14--
---------------------

---x---x---x---x---x---x---x---x--
--0------0------0----

--12--12--12--12--12--12--12--12--
--0------0------0----

----------------------------------
--0------0------0----



   E   E   E   E   E   E   E   E     Q.     Q.     Q     
----------------------------------
---------------------

----------------------------------
---------------------

--15--15--15--15--15--15--15--15--
---------------------

---x---x---x---x---x---x---x---x--
--0------0------0----

--13--13--13--13--13--13--13--13--
--0------0------0----

----------------------------------
--0------0------0----



   E   E   E   E   E   E   E   E     Q.     Q.     Q     
----------------------------------
---------------------

----------------------------------
---------------------

--14--14--14--14--14--14--14--14--
---------------------

---x---x---x---x---x---x---x---x--
--0------0------0----

--12--12--12--12--12--12--12--12--
--0------0------0----

----------------------------------
--0------0------0----



                                 PM PM PM         PM PM PM PM  
   E   E   E  E   E  E  E  E     S  S  E  E  Q    S  S  E  E   
------------------------------
-------------------------------

--11--10----------------------
-------------------------------

----------10--9---------------
-------------------------------

-----------------10--9--------
-------------------------------

------------------------8--7--
--0--0--0----------0--0--0--0--

------------------------------
--0--0--0----------0--0--0--0--



  PM  PM  PM PM            PM PM PM         PM PM PM PM  
  E.  E.  E  E  E  Q       S  S  E  E  Q    S  S  E  E   
------------------------
-------------------------------

------------------------
-------------------------------

------------------------
-------------------------------

------------------------
-------------------------------

--0---0---0--0----------
--0--0--0----------0--0--0--0--

--0---0---0--0----------
--0--0--0----------0--0--0--0--



  PM  PM  PM PM            PM PM PM         PM PM PM PM  
  E.  E.  E  E  E  Q       S  S  E  E  Q    S  S  E  E   
------------------------
-------------------------------

------------------------
-------------------------------

------------------------
-------------------------------

------------------------
-------------------------------

--0---0---0--0----------
--0--0--0----------0--0--0--0--

--0---0---0--0----------
--0--0--0----------0--0--0--0--



  PM  PM  PM PM            PM PM PM         PM PM PM PM  
  E.  E.  E  E  E  Q       S  S  E  E  Q    S  S  E  E   
------------------------
-------------------------------

------------------------
-------------------------------

------------------------
-------------------------------

------------------------
-------------------------------

--0---0---0--0----------
--0--0--0----------0--0--0--0--

--0---0---0--0----------
--0--0--0----------0--0--0--0--



  PM  PM  PM                                                        PM  PM  PM  
  E.  E.  E  S S E  S S E     S S E  Q.     S S E  E     E.  E.  E  E.  E.  E   
---------------------------
--------------------------
------------------------

---------------------------
--------------------------
------------------------

---------------2-----------
--------------------------
------------------------

-------------3---3--2-5-2--
--------------------------
------------------------

--0---0---0----------------
--0-0-0--L------0-0-0--0--
--0---0---0--3---2---1--

--0---0---0----------------
--0-0-0--L------0-0-0--0--
--0---0---0--3---2---1--



                                          PH                                    
  S S E  Q.     S S E  E     E.  E.  E    H            S S E  Q.     S S E  E   
--------------------------
-------------------------
--------------------------

--------------------------
-------------------------
--------------------------

--------------------------
-------------------------
--------------------------

--------------------------
-------------------------
--------------------------

--0-0-0--L------0-0-0--0--
--0---0---0--<>5b--------
--0-0-0--L------0-0-0--0--

--0-0-0--L------0-0-0--0--
--0---0---0--------------
--0-0-0--L------0-0-0--0--



             PM  PM  PM                                             PH    W     
  E.  E.  E  E.  E.  E     S S E  Q.     S S E  E     E.  E.  E     Q     Q     
------------------------
--------------------------
---------------------------

------------------------
--------------------------
---------------------------

------------------------
--------------------------
---------------------------

------------------------
--------------------------
-------------<>12~----L----

--0---0---0--3---2---1--
--0-0-0--L------0-0-0--0--
--0---0---0----------------

--0---0---0--3---2---1--
--0-0-0--L------0-0-0--0--
--0---0---0----------------



  W                   W                   W                 
-------------------
-------------------
-------------------

-------------------
-------------------
-------------------

-------------------
-------------------
-------------------

--0----------------
--L----------------
--L----------------

--0----------------
--L----------------
--L----------------

--0----------------
--L----------------
--L----------------



  W                  
-------------------

-------------------

-------------------

--L----------------

--L----------------

--L----------------





Duration Legend
---------------
W - whole
H - half
Q - quarter
E - 8th
S - 16th
T - 32nd
X - 64th
. - note dotted

-n-
  - n-tuplets


Tablature Legend
----------------
L - tied note
x - dead note
g - grace note
(n) - ghost note
> - accentuded note
NH - natural harmonic
AH - artificial harmonic
TH - tapped harmonic
SH - semi harmonic
PH - pitch harmonic
h - hammer on
p - pull off
b - bend
br - bendRelease
pb - preBend
pbr - preBendRelease
brb - bendReleaseBend
\n/ - tremolo bar dip
\n - tremolo bar dive
-/n - tremolo bar Release up
/n\ - tremolo bar inverted dip
/n - tremolo bar return
-\n - tremolo bar Release down
S - shift slide
s - legato slide
/ -  slide into from below or out of upwards
\ -  slide into from above or out of downwards
~ - vibrato
W - wide vibrato
tr - trill
TP - tremolo picking
T - tapping
S - slap
P - pop
< - fade in
^ - brush up
v - brush down

 


/
How To Set Up Higher Praise As Your Home Page
Copyright 1999, Higher Praise HigherPraise,Inc. All rights reserved. Terms of Use

Enjoy A Life Changing Experience

 
 
 
HigherPraise, Higher Praise, HigherPraise, Higher Praise, HigherPraise

Members..Sign Up. LogIn

 
 

Higher Praise Other Sites
 
 

HigherPraise.org/
Praise And Worship
www.higherpraise.org

HigherPraise.net
Christian Resources
www.higherpraise.net

HigherPraiseTube.com
Videos And Audios
www.higherpraisetube.com.


ChristianLyrics.org

Lyrics And Chrords
www.christianlyrics.org

ChristianChordsLyrics

Lyrics And Chrords
www.christianchordslyrics.com

ChristianChordLyrics

Lyrics And Chrords
www.christianchordlyrics.com

WorshipLyrics.org
10.000 Illustrations
www.worshiplyrics.org

WorshipLyrics.net
10.000 Illustrations
www.worshiplyrics.net

PraiseLyrics.com
PowerPoint Lyrics

www.praiselyrics.com

PraiseLyrics.org
PowerPoint Lyrics

www.praiselyrics.org

1GodTube.com
Chistian Videos

www1godtube..com

OneGodTube.com
Chistian Videos

www.onegodtube..com

 

/
Copyright 1999 - 2019, Higher Praise™ HigherPraise™,Inc. All rights reserved. Terms of Use