Higher Praise - Guitar Chords, Lyrics  GuitarTabs -  Praise nad Worship Music And Christian Songs

Higher Praise - Guitar Tabs, Guitar Chords, Lyrics
   Lyrics, Chords And Tabs
   Popular Lyrics Chords Tab
   Power Point Lyrics
   Praise & Worship Music
   Christian Music Videos
   15900 Videos & Audios
   Midi Files
   Worship Questions
   Christmas Chords, Lyrics
   Lyrics, Chords Tabs Rated

Sermon Outlines And Audio Sermons
   9344 Sermon Outlines
   N.T. Sermon Outlines
   O.T. Sermon Outlines
   Special Guest Outlines
   10.000 Illustrations
   Sunday School Studies
   Bible College Studies
   Greatest Preachers
   Bible Research Tools
Audio Sermons
   2895 Audio Sermons
   85 Sermon Videos
   291 Special Guests Serm

   Complete Audio Bible
Higher Praise Sunday School Teaching
   Children's NT Studies
   Children's OT Studies

   98 Children's Midis
   Gospel For Kids Movie
   Children's JESUS Film
Higher Praise Christian Video Library ,Videos
   Christian Television
   TBN TV Live
   15,000 Videos - HP Tube
   712 Youth Music Vids
  Christian Video Library
   Praise Videos #1 & #2
   85 Sermon Videos
   Prophecy Film -Videos
   JESUS Film -Video
   Childrens JESUS Film
   Gospel For Kids Movie
   Passion Of The Christ
   Noah, Sodom, Sinai, Ark
   Tsunami Videos Photos
News And Information
   Testimonies
   Submit Lyrics, Tabs, Serm
   10.000 Illustrations
   Bible College Course
   Clipart & Web Graphics
   Greatest Preachers
   Complete Talking Bible
   Christian Chat Rooms
   Links Church Resource
   HP Statement Of Faith
Download Clipart
   Audio Sermons
   Clipart & Web Graphics
   Church Administration
   Bible Study Software
   Screen Savers Software
   Verse A Day Software
   Educational Games
   Trade Center Photos

   Soft. Search Engine
Higher Praise News
   Current News
    Archived News
   Submit News
   Newsletter   Higher Praise Interact Prayer
   Prayer For All Needs
   
Submit Lyrics, Sermons
   
Contact Higher Praise
   
Advertising 
   Privacy Policy
//
He Died For You,  Click For Answer! This Is Who Jesus Is Video

'
 
0-9 A B C D E F G H I J K L M N O P Q R S T U V W X Y Z
.

//
Click For Printable...Version Of This File
 

Circular Parade


by The Beautiful Mistake




-------------------------------------------------------------------------------
			     Circular Parade - The Beautiful Mistake
-------------------------------------------------------------------------------

there are few songs in the punk or especially emo genre that I can call a masterpiece.
this is one of them.  this song is beautiful and it's about time someone friggin tabbed it.
So I've tabbed it, put lots of work into it and its fairly accurate, use the right pedals at the 
right time and you'll be pleasantly surprised at how good it sounds.

you'll have to listen to the song a few times to get the hang of the rhythm


Tuning: drop D

guitar 1  : I'm not spelling writing out a  million power chords.
  there's no way you're that incompetent.
*
e
---------------------------------------------------------------------------

B
---------------------------------------------------------------------------

G
------3---3----<--this is the chord so just repeat it--5-------------------

D
------3---3--------------------------------------------3-<-move up to this-

A
------1---1--------------------------------------------3-------------------

D
---------------------------------------------------------------------------

    guitar 2 (use a chorus pedal and it will sound exactly the same ( fairly high depth)
e
-------------------------------------------------------------------8-------

B
----6--6--6---5---5--5-5-5- 6---6--6--5--5--5---5/8--8--8---6--5/6---------

G
-----5--5--5---5---5--5-5-5--5---5--5--5--5--5------5--5--5---5------------

D
---------------------------------------------------------------------------

A
---------------------------------------------------------------------------

D
---------------------------------------------------------------------------


e
--------------------------8------------------------------------------------

B
------8---8--8---6---5/6---------------------------------------------------
*
G
----5---5--5---5---5-------------------------------------------------------
 x 2
D
---------------------------------------------------------------------------

A
---------------------------------------------------------------------------

D
---------------------------------------------------------------------------


e
---------------------------------------------------------------------------

B
---------------------------------------------------------------------------

G
---------------------------------------------------------------------------

D
---------------------------------------------------------------------------

A
---------------------------------------------------------------------------

D
---------------------------------------------------------------------------


*
e
---5/13---13--12--------15-----12----13---12---13---13-12----10---12h13h12-

B
-------10------------10-----10----10---10---10----10------10---10----------

G
---------------------------------------------------------------------------

D
---------------------------------------------------------------------------

A
---------------------------------------------------------------------------

D
---------------------------------------------------------------------------


e
----------------------13--------------13-------------13-----------13-------

B
--13---------13----13---13----13----13---13----13--13--13--13--13----13----
*
G
-----12---10----10---------------------------10--10------------------------
 x 2  
D
---------------------------------------------------------------------------

A
---------------------------------------------------------------------------

D
---------------------------------------------------------------------------



Part two: this part is two hard to decipher so I'm sorry it's done not as well

  Guitar one (dist.)


e
---------------------------------------------------------------------------

B
---------------------------------------------------------------------------

G
---10----9----10-----9----12---14--17----15-14-15------10------------------

D
------x6---x10---x6-------------------x16---------x16-----x8---------------

A
---8-----7----8------7----10---12--15----13-12---13------8-------------------

D
---------------------------------------------------------------------------


It sounds like theres a third guitar playing this so go nuts if you want:
e
---------------------------------------------------------------------------

B
----1---3------------------------------------------------------------------

G
----3---5------------------------------------------------------------------

D
----3---5------------------------------------------------------------------

A
---------------------------------------------------------------------------

D
---------------------------------------------------------------------------



guitar two 
e
----------13---------------------------------------------------------------

B
----13-13------------------------------------------------------------------

G
--10----------keep repeating-----------------------------------------------

D
---------------------------------------------------------------------------

A
---------------------------------------------------------------------------

D
---------------------------------------------------------------------------



guitar one ALONE (chorus pedal):  					 (here dist.) 
									

								       \ /
e
---------------------------------------------------------------------------

B
------------5-----------------------0----0----------------2----2-----------

G
----3-3-3-3---3--3--3--3---3-3--3-3---3-3--3-3-3---3-3--33--33--333--5-----

D
--5--5-5-------5--5---5--1-----1-----------------0----0--------------5-----

A
---------------------------------------------------------------------3-----

D
---------------------------------------------------------------------------




guitar two ALONE:

e
---------------------------------------------------------------------------

B
-----------13-------------13-13-13-----------------------------------------

G
-7-9-10-------10---11-12---------------------------------------------------
  
D
-----------11----x4-------11-11-11-----------------------------------------

A
-5-7-8--------8----13-10---------------------------------------------------

D
---------------------------------------------------------------------------



guitar two ALONE:

e
---------------------------------------------------------------------------

B
-----------13--------------------------------------------------------------

G
-7-9-10-------10---11-12-14-14-14------------------------------------------
  x 2
D
-----------11----x4--------------------------------------------------------

A
-5-7-8--------8----13-10-12-12-12------------------------------------------

D
---------------------------------------------------------------------------




most of the rest of the song is made up of this stuff

except the end part :
e
---------------------------------------------------------------------------

B
-----------------------------------33-33-33-33-33---5----------------------

G
-----------------------------------33-33-33-33-33---5-x16------------------
x2
D
-33-33-33-33-3/5--00-00-00-00-00---11-11-11-11-11---3----------------------

A
-33-33-33-33-3/5--00-00-00-00-00-------------------------------------------

D
-33-33-33-33-3/5--00-00-00-00-00-------------------------------------------


e
---------------------------------------------------------------------------

B
---------------------------------------------------------------------------

G
--2------------------------------------------------------------------------

D
--3------------------------------------------------------------------------

A
--1------------------------------------------------------------------------

E
---------------------------------------------------------------------------



YOU'RE WELCOME YA INGRETFAL INGRETS!!!
-jon pinkus


 /  slide up

 \  slide down

 h  hammer-on

 p  pull-off

 ~  vibrato

 +  harmonic

 x  Mute note
===============================================================================
 


/
How To Set Up Higher Praise As Your Home Page
Copyright 1999, Higher Praise HigherPraise,Inc. All rights reserved. Terms of Use

Enjoy A Life Changing Experience

 
 
 
HigherPraise, Higher Praise, HigherPraise, Higher Praise, HigherPraise

Members..Sign Up. LogIn

 
 

Higher Praise Other Sites
 
 

HigherPraise.org/
Praise And Worship
www.higherpraise.org

HigherPraise.net
Christian Resources
www.higherpraise.net

HigherPraiseTube.com
Videos And Audios
www.higherpraisetube.com.


ChristianLyrics.org

Lyrics And Chrords
www.christianlyrics.org

ChristianChordsLyrics

Lyrics And Chrords
www.christianchordslyrics.com

ChristianChordLyrics

Lyrics And Chrords
www.christianchordlyrics.com

WorshipLyrics.org
10.000 Illustrations
www.worshiplyrics.org

WorshipLyrics.net
10.000 Illustrations
www.worshiplyrics.net

PraiseLyrics.com
PowerPoint Lyrics

www.praiselyrics.com

PraiseLyrics.org
PowerPoint Lyrics

www.praiselyrics.org

1GodTube.com
Chistian Videos

www1godtube..com

OneGodTube.com
Chistian Videos

www.onegodtube..com

 

/
Copyright 1999 - 2019, Higher Praise™ HigherPraise™,Inc. All rights reserved. Terms of Use