Higher Praise - Guitar Chords, Lyrics  GuitarTabs -  Praise nad Worship Music And Christian Songs

Higher Praise - Guitar Tabs, Guitar Chords, Lyrics
   Lyrics, Chords And Tabs
   Popular Lyrics Chords Tab
   Power Point Lyrics
   Praise & Worship Music
   Christian Music Videos
   15900 Videos & Audios
   Midi Files
   Worship Questions
   Christmas Chords, Lyrics
   Lyrics, Chords Tabs Rated

Sermon Outlines And Audio Sermons
   9344 Sermon Outlines
   N.T. Sermon Outlines
   O.T. Sermon Outlines
   Special Guest Outlines
   10.000 Illustrations
   Sunday School Studies
   Bible College Studies
   Greatest Preachers
   Bible Research Tools
Audio Sermons
   2895 Audio Sermons
   85 Sermon Videos
   291 Special Guests Serm

   Complete Audio Bible
Higher Praise Sunday School Teaching
   Children's NT Studies
   Children's OT Studies

   98 Children's Midis
   Gospel For Kids Movie
   Children's JESUS Film
Higher Praise Christian Video Library ,Videos
   Christian Television
   TBN TV Live
   15,000 Videos - HP Tube
   712 Youth Music Vids
  Christian Video Library
   Praise Videos #1 & #2
   85 Sermon Videos
   Prophecy Film -Videos
   JESUS Film -Video
   Childrens JESUS Film
   Gospel For Kids Movie
   Passion Of The Christ
   Noah, Sodom, Sinai, Ark
   Tsunami Videos Photos
News And Information
   Testimonies
   Submit Lyrics, Tabs, Serm
   10.000 Illustrations
   Bible College Course
   Clipart & Web Graphics
   Greatest Preachers
   Complete Talking Bible
   Christian Chat Rooms
   Links Church Resource
   HP Statement Of Faith
Download Clipart
   Audio Sermons
   Clipart & Web Graphics
   Church Administration
   Bible Study Software
   Screen Savers Software
   Verse A Day Software
   Educational Games
   Trade Center Photos

   Soft. Search Engine
Higher Praise News
   Current News
    Archived News
   Submit News
   Newsletter   Higher Praise Interact Prayer
   Prayer For All Needs
   
Submit Lyrics, Sermons
   
Contact Higher Praise
   
Advertising 
   Privacy Policy
//
He Died For You,  Click For Answer! This Is Who Jesus Is Video

'
 
0-9 A B C D E F G H I J K L M N O P Q R S T U V W X Y Z
.

//
Click For Printable...Version Of This File
 

Dirty Second Hands


by Switchfoot




Intro: acoustic
e----------0----------0----------0->
B--------3-3--------3-3--------3-3->
G--------2-2--------2-2--------2-2->
D-3-0-0--0-0-3-0-0--0-0-3-0-0--0-0->
A----3----------3----------3------->
D------0---0------0---0------0---0->

Verse 1: acoustic (listen for strumming pattern)
e-------------------------------------------------------------0----------0->
B-------------------------------------------------------------3--------3-3->
G--7--9----10--12---11---9---10---9---7--9----10--12--------2-2--------2-2->
D----------------------------------------------------3-0-0--0-0-3-0-0--0-0->
A--5--7----8---10---9----7---8----7---5--7----8---10----3----------3------->
D-00-00--0-0--00--0-0--0-0--00---00--00-00--0-0--00-------0---0------0---0->
Please donít be so naÔve/You know youíre not fooling anyone/Youíre not as
tough as you think/With dirty second hands, The dirty second hands

Verse 1: acoustic (listen for strumming pattern)
e-------------------------------------------------------------0----------0->
B-------------------------------------------------------------3--------3-3->
G--7--9----10--12---11---9---10---9---7--9----10--12--------2-2--------2-2->
D----------------------------------------------------3-0-0--0-0-3-0-0--0-0->
A--5--7----8---10---9----7---8----7---5--7----8---10----3----------3------->
D-00-00--0-0--00--0-0--0-0--00---00--00-00--0-0--00-------0---0------0---0->
Canít get nothing for free/It becomes so predictable/You start fighting to
breathe/The dirty second hands, Your dirty second hands

        (those are tens elevens and twelves)
chorus: Guitar 1          REPEAT to here
           (bend hard and slow)
/e------------------------------------------------
------------------------->
\

B------------------------------------------------
-6b---------------------->

G-1010---1010------------------------------------
-5b---------------------->

D-10109-910109-9-101011111212--------------------
------------------------->

A-8-8-9-98-8-9-9-101011111212--------------------
------------------------->

D-----9-9----9-9-101011111212--------------------
------------------------->

                                       
         
                        

chorus: acoustic         REPEAT to here
         
                        

e------------------------------0----------0------
------------------------->

B------------------------------3----------3------
------------------------->

G----------------------------2-2--------2-2------
------------------------->

D----------------------------0-0-4-0-0--0-0-4-0-0
------------------------->

A-----------------------------------4----------4-
------------------------->

\D----------------------------0-0------0---0------
------------------------->
/
Hereís the face of everything that breaks you down/Now you face the face of
everything that breaks you down

Verse 2: guitar 1
/e-------------------------------------------------------------------------->
\

B-------------------------------------------------------------------------->

G--7--9---10--12---11--9---10---9---7--9----10--12------------------------->

D-------------------------------------------------------------------------->

A--5--7---8---10---9---7---8----7---5--7----8---10------------------------->

D-00-00-0-0--00--0-0-0-0--00---00--00-00--0-0--00-------------------------->

                                                                          

Verse 2: acoustic                                                         

e-----------------------------------------------------------0----------0--->

B-----------------------------------------------------------3--------3-3--->

G--7--9---10--12---11--9---10---9---7--9----10--12--------2-2--------2-2--->

D--------------------------------------------------3-0-0--0-0-3-0-0--0-0--->

A--5--7---8---10---9---7---8----7---5--7----8---10----3----------3--------->

\D-00-00-0-0--00--0-0-0-0--00---00--00-00--0-0--00-------0---0------0---0--->
/
With an army of me/we invent our own enemies/Man verses machine/and the
dirty second hands, the dirty second hands

Verse 2: guitar 1
/e-------------------------------------------------------------------------->
\

B-------------------------------------------------------------------------->

G--7--9---10--12---11--9---10---9---7--9----10--12------------------------->

D-------------------------------------------------------------------------->

A--5--7---8---10---9---7---8----7---5--7----8---10------------------------->

D-00-00-0-0--00--0-0-0-0--00---00--00-00--0-0--00-------------------------->

                                                                          

Verse 2: acoustic                                                         

e-----------------------------------------------------------0----------0--->

B-----------------------------------------------------------3--------3-3--->

G--7--9---10--12---11--9---10---9---7--9----10--12--------2-2--------2-2--->

D--------------------------------------------------3-0-0--0-0-3-0-0--0-0--->

A--5--7---8---10---9---7---8----7---5--7----8---10----3----------3--------->

\D-00-00-0-0--00--0-0-0-0--00---00--00-00--0-0--00-------0---0------0---0--->
/
In the land of the free/and the home of the remedy/The old clock is a thief/
With dirty second hands, with dirty second hands

---REPEAT CHORUS (instead of bending with the electric, continue with the
acoustic riff)

Bridge: continuing with the acoustic riff all the way through:
Are you really as tough as you think? You blink and youíre over the brink/
You bleed but youíre blood runs pink/With dirty second hands, dirty second
hands/Youíre not quite as tough as you thought/You bought the American
rot/The very seed that you thought you shot/With dirty second hands, dirty
second hands/You might be right/The fight might be right inside you/The
blind leading the lied to/Tonight maybe you bind you with dirty second hands

---REPEAT CHORUS TWICE

end with the acoustic riff
 


/
How To Set Up Higher Praise As Your Home Page
Copyright 1999, Higher Praise HigherPraise,Inc. All rights reserved. Terms of Use

Enjoy A Life Changing Experience

 
 
 
HigherPraise, Higher Praise, HigherPraise, Higher Praise, HigherPraise

Members..Sign Up. LogIn

 
 

Higher Praise Other Sites
 
 

HigherPraise.org/
Praise And Worship
www.higherpraise.org

HigherPraise.net
Christian Resources
www.higherpraise.net

HigherPraiseTube.com
Videos And Audios
www.higherpraisetube.com.


ChristianLyrics.org

Lyrics And Chrords
www.christianlyrics.org

ChristianChordsLyrics

Lyrics And Chrords
www.christianchordslyrics.com

ChristianChordLyrics

Lyrics And Chrords
www.christianchordlyrics.com

WorshipLyrics.org
10.000 Illustrations
www.worshiplyrics.org

WorshipLyrics.net
10.000 Illustrations
www.worshiplyrics.net

PraiseLyrics.com
PowerPoint Lyrics

www.praiselyrics.com

PraiseLyrics.org
PowerPoint Lyrics

www.praiselyrics.org

1GodTube.com
Chistian Videos

www1godtube..com

OneGodTube.com
Chistian Videos

www.onegodtube..com

 

/
© Copyright 1999 - 2019, Higher Praise™ HigherPraise™,Inc. All rights reserved. Terms of Use