Higher Praise - Guitar Chords, Lyrics  GuitarTabs -  Praise nad Worship Music And Christian Songs

Higher Praise - Guitar Tabs, Guitar Chords, Lyrics
   Lyrics, Chords And Tabs
   Popular Lyrics Chords Tab
   Power Point Lyrics
   Praise & Worship Music
   Christian Music Videos
   15900 Videos & Audios
   Midi Files
   Worship Questions
   Christmas Chords, Lyrics
   Lyrics, Chords Tabs Rated

Sermon Outlines And Audio Sermons
   9344 Sermon Outlines
   N.T. Sermon Outlines
   O.T. Sermon Outlines
   Special Guest Outlines
   10.000 Illustrations
   Sunday School Studies
   Bible College Studies
   Greatest Preachers
   Bible Research Tools
Audio Sermons
   2895 Audio Sermons
   85 Sermon Videos
   291 Special Guests Serm

   Complete Audio Bible
Higher Praise Sunday School Teaching
   Children's NT Studies
   Children's OT Studies

   98 Children's Midis
   Gospel For Kids Movie
   Children's JESUS Film
Higher Praise Christian Video Library ,Videos
   Christian Television
   TBN TV Live
   15,000 Videos - HP Tube
   712 Youth Music Vids
  Christian Video Library
   Praise Videos #1 & #2
   85 Sermon Videos
   Prophecy Film -Videos
   JESUS Film -Video
   Childrens JESUS Film
   Gospel For Kids Movie
   Passion Of The Christ
   Noah, Sodom, Sinai, Ark
   Tsunami Videos Photos
News And Information
   Testimonies
   Submit Lyrics, Tabs, Serm
   10.000 Illustrations
   Bible College Course
   Clipart & Web Graphics
   Greatest Preachers
   Complete Talking Bible
   Christian Chat Rooms
   Links Church Resource
   HP Statement Of Faith
Download Clipart
   Audio Sermons
   Clipart & Web Graphics
   Church Administration
   Bible Study Software
   Screen Savers Software
   Verse A Day Software
   Educational Games
   Trade Center Photos

   Soft. Search Engine
Higher Praise News
   Current News
    Archived News
   Submit News
   Newsletter   Higher Praise Interact Prayer
   Prayer For All Needs
   
Submit Lyrics, Sermons
   
Contact Higher Praise
   
Advertising 
   Privacy Policy
//
He Died For You,  Click For Answer! This Is Who Jesus Is Video

'
 
0-9 A B C D E F G H I J K L M N O P Q R S T U V W X Y Z
.

//
Click For Printable...Version Of This File
 

Burn Out Bright


by Switchfoot




Intro: guitar 1 (I donít exactly know how he plays this, because it sounds
                 like he uses a pick, but here are the right notes)(if you
                 want to, divide the two parts between two different
                 guitars, it might sound better)
e-2-2-2222-2-0-0--00000-0-0000-0------2-2-2222-2-0-0--00000-0-0000-0------->
B-------------------------------3-3333------------------------------3-3333->
G-------------------------------2-2222------------------------------2-2222->
D-------------------------------0-0000------------------------------0-0000->
A-2-2-2222-2----------0-0-0000-0------2-2-2222-2----------0-0-0000-0------->
E------------0-0--0000---------------------------0-0--0000----------------->

Verse 1: guitar 1 (*= palm mute)
/e-2~--------333222-------00-------3322----00----------0022------00--->\

B-3~--------------0000033--3333333----33----33----00330000002233----->

G-2~------------------------------------22----2222--44--------------->

D-0~----------------------------------------------------------------->

A-------------------------------------------------------------------->

E-------------------------------------------------------------------->

            **********************************************            

verse 1: guitar 2 (*= palm mute, += harmonics)                        

e-------------------------------------------------------------------->

B-------------------------------------------------------------------->

G---------------------------------------------------------00000000++->

D-00000000--------22222222----------------0000000022222222--------++->

A---------00000000--------22222222--------------------------------++->

\E---------------------------------33333333--------------------------->/
   ********************************************************
Does it have to start with a broken heart/Broken dreams and bleeding parts/
We were young and world was clear/but young ambition disappears/I swore it
would never come to this/The average, the obvious/Iím still discontented
down here/Iím still discontented

chorus: guitar 1
/e---------------------------------------------------------->\

B-55533353333222325553335300227353555333533332223255533353->

G---------------------------------------------------------->

D---------------------------------------------------------->

A---------------------------------------------------------->

E---------------------------------------------------------->

                                                            

chorus: guitar 2 (+= harmonics)                             

e---------------------------------------------------------->

B---------------------------------------------------------->

G-77777777--------99999999--------77777777----------------->

D-777777777777777799999999999999++777777777777777799995555->

A-555555557777777777777777999999++555555557777777799995555->

\E---------55555555--------777777++--------5555555577773333->/
If weíve only got one try/If weíve only got one life/If time was never on
our side/then before I die/I want to burn out bright

---REPEAT INTRO

Verse 1: guitar 1 (*= palm mute)
/e---------------------------------3322----00----------0022------00--->\

B-7\----------------------------------33----33----0033----002233----->

G-7\------------------------------------22----2222------------------->

D-7\--------------22222222------------------------------------------->

A-5\------00000000--------22222222----------------------------------->

E-------------------------------------------------------------------->

          ************************************************            

verse 1: guitar 2 (*= palm mute, += harmonics)                        

e-------------------------------------------------------------------->

B-------------------------------------------------------------------->

G---------------------------------------------------------00000000++->

D-----------------22222222----------------0000000022222222--------++->

A---------00000000--------22222222--------------------------------++->

\E---------------------------------33333333--------------------------->/
           ************************************************
A spark ignites/in time and space/Limping through this human race/You bite
and claw your way back home/but youíre running the wrong way/The future is
a question mark/of kerosene and electric sparks/Thereís still fire in you
yet/Yeah thereís still fire in you!

---REPEAT CHORUS

fill: guitar 1
e-2-2-2222-3-0-0-0000-0-2-2-5555-3-3-3322-0-0-0022\->
B--------------------------------------------------->
G--------------------------------------------------->
D--------------------------------------------------->
A--------------------------------------------------->
E--------------------------------------------------->

bridge: guitar 2
e-------------------------------------------00000000->
B-------------------------------------------00000000->
G-------------------------------------------11111111->
D-99999999\555555552222222299999999\555555++22222222->
A-99999999\555555552222222299999999\555555++22222222->
E-77777777\333333330000000077777777\333333++00000000->
I keep cleaning up the mess Iíve made/I wonít run away/I canít sleep in the
bed Iíve made

Chorus 2: guitar 1 (trem.12= tremolo pick 12th fret)
/e-trem.12-------------------------------------------------->\

B---------555444547775557522449575777555755554445477755575->

G---------------------------------------------------------->

D---------------------------------------------------------->

A---------------------------------------------------------->

E---------------------------------------------------------->

                                                            

chorus 2: guitar 2 (+= harmonics)                           

e---------------------------------------------------------->

B---------------------------------------------------------->

G---------44-44-44--------66-66+++99-99-99--------6666----->

D---------44-44-4444-44-4466-66+++99-99-9999-99-9966667777->

A---------22-22-2244-44-4444-44+++77-77-7799-99-9944447777->

\E-----------------22-22-22----------------77-77-77----5555->/
If weíve only got one life/If weíve only got one life/If time was never on
our side/then before I die/I want to burn out

Chorus 2: guitar 1 (trem.12= tremolo pick 12th fret)
/e---------------------------------------------------------->\

B-77755575555444547775557522449575777555755554445477755575->

G---------------------------------------------------------->

D---------------------------------------------------------->

A---------------------------------------------------------->

E---------------------------------------------------------->

                                                            

chorus 2: guitar 2 (+= harmonics)                           

e---------------------------------------------------------->

B---------------------------------------------------------->

G-99999999----------------66666+++99999999--------6666----->

D-99999999999999994444444466666+++999999999999999966667777->

A-77777777999999994444444444444+++777777779999999944447777->

\E---------7777777722222222----------------77777777----5555->/
before I die I want to burn out/before I die I want to burn out/before I
die  I want to burn out bright/If time was never on our side/then before I
die/I want to burn out bright

outro: guitar 1
e-4-4-4444-4-2-2--22222-2-2222-2------4-4-4444-4-2-2--22222-2-2222-0------->
B-------------------------------5-5555------------------------------5~----->
G-------------------------------4-4444------------------------------4~----->
D-------------------------------2-2222------------------------------2~----->
A-4-4-4444-4----------2-2-2222-2------4-4-4444-4----------2-2-2222-22~----->
E------------2-2--2222---------------------------2-2--2222----------0~----->
 


/
How To Set Up Higher Praise As Your Home Page
Copyright 1999, Higher Praise HigherPraise,Inc. All rights reserved. Terms of Use

Enjoy A Life Changing Experience

 
 
 
HigherPraise, Higher Praise, HigherPraise, Higher Praise, HigherPraise

Members..Sign Up. LogIn

 
 

Higher Praise Other Sites
 
 

HigherPraise.org/
Praise And Worship
www.higherpraise.org

HigherPraise.net
Christian Resources
www.higherpraise.net

HigherPraiseTube.com
Videos And Audios
www.higherpraisetube.com.


ChristianLyrics.org

Lyrics And Chrords
www.christianlyrics.org

ChristianChordsLyrics

Lyrics And Chrords
www.christianchordslyrics.com

ChristianChordLyrics

Lyrics And Chrords
www.christianchordlyrics.com

WorshipLyrics.org
10.000 Illustrations
www.worshiplyrics.org

WorshipLyrics.net
10.000 Illustrations
www.worshiplyrics.net

PraiseLyrics.com
PowerPoint Lyrics

www.praiselyrics.com

PraiseLyrics.org
PowerPoint Lyrics

www.praiselyrics.org

1GodTube.com
Chistian Videos

www1godtube..com

OneGodTube.com
Chistian Videos

www.onegodtube..com

 

/
© Copyright 1999 - 2019, Higher Praise™ HigherPraise™,Inc. All rights reserved. Terms of Use