Higher Praise - Guitar Chords, Lyrics  GuitarTabs -  Praise nad Worship Music And Christian Songs

Higher Praise - Guitar Tabs, Guitar Chords, Lyrics
   Lyrics, Chords And Tabs
   Popular Lyrics Chords Tab
   Power Point Lyrics
   Praise & Worship Music
   Christian Music Videos
   15900 Videos & Audios
   Midi Files
   Worship Questions
   Christmas Chords, Lyrics
   Lyrics, Chords Tabs Rated

Sermon Outlines And Audio Sermons
   9344 Sermon Outlines
   N.T. Sermon Outlines
   O.T. Sermon Outlines
   Special Guest Outlines
   10.000 Illustrations
   Sunday School Studies
   Bible College Studies
   Greatest Preachers
   Bible Research Tools
Audio Sermons
   2895 Audio Sermons
   85 Sermon Videos
   291 Special Guests Serm

   Complete Audio Bible
Higher Praise Sunday School Teaching
   Children's NT Studies
   Children's OT Studies

   98 Children's Midis
   Gospel For Kids Movie
   Children's JESUS Film
Higher Praise Christian Video Library ,Videos
   Christian Television
   TBN TV Live
   15,000 Videos - HP Tube
   712 Youth Music Vids
  Christian Video Library
   Praise Videos #1 & #2
   85 Sermon Videos
   Prophecy Film -Videos
   JESUS Film -Video
   Childrens JESUS Film
   Gospel For Kids Movie
   Passion Of The Christ
   Noah, Sodom, Sinai, Ark
   Tsunami Videos Photos
News And Information
   Testimonies
   Submit Lyrics, Tabs, Serm
   10.000 Illustrations
   Bible College Course
   Clipart & Web Graphics
   Greatest Preachers
   Complete Talking Bible
   Christian Chat Rooms
   Links Church Resource
   HP Statement Of Faith
Download Clipart
   Audio Sermons
   Clipart & Web Graphics
   Church Administration
   Bible Study Software
   Screen Savers Software
   Verse A Day Software
   Educational Games
   Trade Center Photos

   Soft. Search Engine
Higher Praise News
   Current News
    Archived News
   Submit News
   Newsletter   Higher Praise Interact Prayer
   Prayer For All Needs
   
Submit Lyrics, Sermons
   
Contact Higher Praise
   
Advertising 
   Privacy Policy
//
He Died For You,  Click For Answer! This Is Who Jesus Is Video

'
 
0-9 A B C D E F G H I J K L M N O P Q R S T U V W X Y Z
.

//
Click For Printable...Version Of This File
 

Blues


by Switchfoot




intro: guitar 1 (acoustic)
e-5--5--5--5--2--2--2--2--5--5--5--5--2--2--0--0--->
B-7--7--7--7--3--3--3--3--7--7--7--7--3--3--3--3--->
G--7--7--7--7--0--0--0--0--7--7--7--7--0--0--3--3-->
D-------------------------------------------------->
A-------------------------------------------------->
E-------------------------------------------------->

verse 1: guitar 1
e-5--5--5--5--2--2--2--2--5--5--5--5--2--2--2--2---------------------->
B-7--7--7--7--3--3--3--3--7--7--7--7--3--3--3--3---------------------->
G--7--7--7--7--0--0--0--0--7--7--7--7--0--0--0--0-2-2-2-2-2-2-2-2-2-2->
D--------------------------------------------------------------------->
A-------------------------------------------------0-0-0-0-0-0-0-0-0-0->
E--------------------------------------------------------------------->
is this the new year or just another night?  is this the new fear or just
another fright?  is this the new tear or just another desperation?

fill: guitar 1
e-5--5--5--5--2--2--2--2-->
B-7--7--7--7--3--3--3--3-->
G--7--7--7--7--0--0--0--0->
D------------------------->
A------------------------->
E------------------------->

verse 1: guitar 1
e-------------2--2--2--2--------------2--2--2--2--3--3--3--3--2--2--2--2--->
B-55-77-55-77-3--3--3--3--55-77-77-55-3--3--3--3--5--5--5--5--5--5--5--5--->
G-44-44-44-44--0--0--0--0-44-44-44-44--0--0--0--0--4--4--4--4--4--4--4--4-->
D-------------------------------------------------------------------------->
A-------------------------------------------------------------------------->
E-------------------------------------------------------------------------->
is this the finger or just another fist?  is this the Kingdom or just a hit
and miss?  a misdirection, most in all this desperation

fill: guitar 1
e-------------2--2--2--2--->
B-55-55-77-77-3--3--3--3--->
G-44-44-44-44--0--0--0--0-->
D-------------------------->
A-------------------------->
E-------------------------->

verse 1: guitar 1
e-5--5--5--5--0--0--0--0--2--2--2--2--2--2--2--2-->
B-7--7--7--7--3--3--3--3--3--3--3--3--3--3--3--3-->
G--7--7--7--7--2--2--2--2--4--4--4--4--0--0--0--0->
D------------------------------------------------->
A------------------------------------------------->
E------------------------------------------------->
is this what they call freedom?  is this what you call pain?  is this what
they call discontented fame?

verse 1: guitar 1
e-5--5--5--5--0--0--0--0--2--2--2--2--2--2--2--2-->
B-7--7--7--7--3--3--3--3--3--3--3--3--3--3--3--3-->
G--7--7--7--7--2--2--2--2--4--4--4--4--0--0--0--0->
D------------------------------------------------->
A------------------------------------------------->
E------------------------------------------------->
it'll be a day like this one when the world caves in when the world caves
in when the world caves in

fill: guitar 1
e-5--5--5--5--2--2--0--0--->
B-7--7--7--7--3--3--3--3--->
G--7--7--7--7--0--0--3--3-->
D-------------------------->
A-------------------------->
E-------------------------->

verse 2: guitar 1
e-2-2-2-2-2-2-0-0-2-2-2-2-2-2-0-0-2-2-2-2-3-3-0-0-2-2-2-2-2-2-5-5->
B-0-0-0-0-3-3-3-3-0-0-0-0-3-3-3-3-5-5-5-5-5-5-5-5-0-0-0-0-3-3-3-3->
G-4-4-4-4-0-0-0-0-4-4-4-4-0-0-0-0-4-4-4-4-4-4-4-4-4-4-4-4-0-0-0-0->
D---------------------------------2-2-2-2-5-5-5-5----------------->
A----------------------------------------------------------------->
E----------------------------------------------------------------->
I'm singing this one like a broken piece of glass from broken arms and
broken noses in the back is this the new year or just another desperation?

verse 2: guitar 1
e-2--2--2--2--0--0--0--0--2--2--2--2--3--3--3--3-->
B-3--3--3--3--3--3--3--3--3--3--3--3--3--3--3--3-->
G-2--2--2--2--2--2--2--2--4--4--4--4--4--4--4--4-->
D--0--0--0--0--2--2--2--2--4--4--4--4--5--5--5--5->
A------------------------------------------------->
E------------------------------------------------->
you're pushing till you're shoving you bend until you break till you stand
on the broken fields where your fathers lay

verse 2: guitar 1
e-2--2--2--2--0--0--0--0--2--2--2--2--3--3--3--3--2--2--2--2--3--3--3--3-->
B-3--3--3--3--3--3--3--3--3--3--3--3--3--3--3--3--3--3--3--3--3--3--3--3-->
G-2--2--2--2--2--2--2--2--4--4--4--4--4--4--4--4--2--2--2--2--4--4--4--4-->
D--0--0--0--0--2--2--2--2--4--4--4--4--5--5--5--5--0--0--0--0--5--5--5--5->
A------------------------------------------------------------------------->
E------------------------------------------------------------------------->
it'll be a day like this one when the world caves in when the world caves
in when the world caves in when the world caves 

verse 2: guitar 1
e-2--2--2--2--3--3--3--3--2--2--2--2--3--3--3--3--0--0--2--2--5--5--5--5-->
B-3--3--3--3--3--3--3--3--3--3--3--3--3--3--3--3--0--0--2--2--5--5--5--5-->
G-2--2--2--2--4--4--4--4--2--2--2--2--4--4--4--4--2--2--4--4--7--7--7--7-->
D--0--0--0--0--5--5--5--5--0--0--0--0--5--5--5--5--2--2--4--4--7--7--7--7->
A------------------------------------------------------------------------->
E------------------------------------------------------------------------->
in when the world caves in when the world caves in

verse 3: guitar 1
/e-2--2--2--2--0--0--0--0--2--2--2--2--3--3--3--3-->\

B-3--3--3--3--0--0--0--0--3--3--3--3--3--3--3--3-->

G-2--2--2--2--2--2--2--2--4--4--4--4--4--4--4--4-->

D--0--0--0--0--2--2--2--2--4--4--4--4--5--5--5--5->

A------------------------------------------------->

E------------------------------------------------->

                                                   \

verse 3: guitar 2 (electric)                        
REAPEAT 4x

e-2~~---------0~~---------2~~---------3~~------3-->/

B-3~~---------0~~---------3~~---------3~~------3-->

G-2~~---------2~~---------4~~---------4~~------4-->

D-0~~---------2~~---------4~~---------7~~------7-->

A-------------0~~---------2~~---------5~~------5-->

\E-------------------------------------3~~------5-->/
There's nothing here worth saving, is no one here at all?  is there any net
left that could break our fall?  it'll be a day like this one when the sky
falls down and the hungry and poor and deserted are found are you
discontented?  have you been pushing hard?  have you been through and down
this broken house of cards?  it'll be a day like this one when the world
caves in when the world caves in when the world caves in

fill: guitar 1
/e-2--2--2--2--3--3--3--3--2--2--2--2--3--3--3--3-->\

B-3--3--3--3--3--3--3--3--3--3--3--3--3--3--3--3-->

G-2--2--2--2--4--4--4--4--2--2--2--2--4--4--4--4-->

D--0--0--0--0--5--5--5--5--0--0--0--0--5--5--5--5->

A------------------------------------------------->

E------------------------------------------------->

                                                   

fill: guitar 2 (electric)                          

e-2~~---------------------2~~--------------------->

B-3~~---------------------3~~--------------------->

G-2~~---------------------2~~--------------------->

D-0~~---------------------0~~--------------------->

A------------------------------------------------->

\E------------------------------------------------->/

verse 4: guitar 1
e-2--2--2--2--2--2--2--2--5--5--5--5--2--2--2--2--3-3-3-3-2--2--2--2-->
B-3--3--3--3--3--3--3--3--7--7--7--7--3--3--3--3--5-5-5-5-3--3--3--3-->
G--4--4--4--4--0--0--0--0--7--7--7--7--4--4--4--4-4-4-4-4--0--0--0--0->
D-------------------------------------------------2-2-2-2------------->
A--------------------------------------------------------------------->
E--------------------------------------------------------------------->
is there nothing left now? nothing left to sing are there any left who
haven't kissed the enemy?  is this the New Year or just another desperation?

fill: guitar 1
e-3--3--3--3--2--2--2--2-->
B-5--5--5--5--3--3--3--3-->
G--4--4--4--4--0--0--0--0->
D------------------------->
A------------------------->
E------------------------->

outro: guitar 1
/e-2--2--2--2--0--0--0--0--2--2--2--2--3--3--3--3-->\

B-3--3--3--3--0--0--0--0--3--3--3--3--3--3--3--3-->

G-2--2--2--2--2--2--2--2--4--4--4--4--4--4--4--4-->

D--0--0--0--0--2--2--2--2--4--4--4--4--5--5--5--5->

A------------------------------------------------->

E------------------------------------------------->

                                                   \

outro: guitar 2                                     
REAPEAT 3x

e-2~~---------0~~---------2~~---------3~~------3-->/

B-3~~---------0~~---------3~~---------3~~------3-->

G-2~~---------2~~---------4~~---------4~~------4-->

D-0~~---------2~~---------4~~---------7~~------7-->

A-------------0~~---------2~~---------5~~------5-->

\E-------------------------------------3~~------5-->/
just as I could find you, do the wicked never lose?  is there any honest
song to sing besides these blues?  and nothing is okay till the world caves
in till the world caves in till the world caves in till the world caves in
till the world caves in until the world caves in until the world caves in
until the world caves in until the world caves in until the world caves in
until the world caves in

end on:
e-2~~->
B-3~~->
G-2~~->
D-0~~->
A----->
E----->

 


/
How To Set Up Higher Praise As Your Home Page
Copyright 1999, Higher Praise HigherPraise,Inc. All rights reserved. Terms of Use

Enjoy A Life Changing Experience

 
 
 
HigherPraise, Higher Praise, HigherPraise, Higher Praise, HigherPraise

Members..Sign Up. LogIn

 
 

Higher Praise Other Sites
 
 

HigherPraise.org/
Praise And Worship
www.higherpraise.org

HigherPraise.net
Christian Resources
www.higherpraise.net

HigherPraiseTube.com
Videos And Audios
www.higherpraisetube.com.


ChristianLyrics.org

Lyrics And Chrords
www.christianlyrics.org

ChristianChordsLyrics

Lyrics And Chrords
www.christianchordslyrics.com

ChristianChordLyrics

Lyrics And Chrords
www.christianchordlyrics.com

WorshipLyrics.org
10.000 Illustrations
www.worshiplyrics.org

WorshipLyrics.net
10.000 Illustrations
www.worshiplyrics.net

PraiseLyrics.com
PowerPoint Lyrics

www.praiselyrics.com

PraiseLyrics.org
PowerPoint Lyrics

www.praiselyrics.org

1GodTube.com
Chistian Videos

www1godtube..com

OneGodTube.com
Chistian Videos

www.onegodtube..com

 

/
Copyright 1999 - 2019, Higher Praise™ HigherPraise™,Inc. All rights reserved. Terms of Use