Higher Praise - Guitar Chords, Lyrics  GuitarTabs -  Praise nad Worship Music And Christian Songs

Higher Praise - Guitar Tabs, Guitar Chords, Lyrics
   Lyrics, Chords And Tabs
   Popular Lyrics Chords Tab
   Power Point Lyrics
   Praise & Worship Music
   Christian Music Videos
   15900 Videos & Audios
   Midi Files
   Worship Questions
   Christmas Chords, Lyrics
   Lyrics, Chords Tabs Rated

Sermon Outlines And Audio Sermons
   9344 Sermon Outlines
   N.T. Sermon Outlines
   O.T. Sermon Outlines
   Special Guest Outlines
   10.000 Illustrations
   Sunday School Studies
   Bible College Studies
   Greatest Preachers
   Bible Research Tools
Audio Sermons
   2895 Audio Sermons
   85 Sermon Videos
   291 Special Guests Serm

   Complete Audio Bible
Higher Praise Sunday School Teaching
   Children's NT Studies
   Children's OT Studies

   98 Children's Midis
   Gospel For Kids Movie
   Children's JESUS Film
Higher Praise Christian Video Library ,Videos
   Christian Television
   TBN TV Live
   15,000 Videos - HP Tube
   712 Youth Music Vids
  Christian Video Library
   Praise Videos #1 & #2
   85 Sermon Videos
   Prophecy Film -Videos
   JESUS Film -Video
   Childrens JESUS Film
   Gospel For Kids Movie
   Passion Of The Christ
   Noah, Sodom, Sinai, Ark
   Tsunami Videos Photos
News And Information
   Testimonies
   Submit Lyrics, Tabs, Serm
   10.000 Illustrations
   Bible College Course
   Clipart & Web Graphics
   Greatest Preachers
   Complete Talking Bible
   Christian Chat Rooms
   Links Church Resource
   HP Statement Of Faith
Download Clipart
   Audio Sermons
   Clipart & Web Graphics
   Church Administration
   Bible Study Software
   Screen Savers Software
   Verse A Day Software
   Educational Games
   Trade Center Photos

   Soft. Search Engine
Higher Praise News
   Current News
    Archived News
   Submit News
   Newsletter   Higher Praise Interact Prayer
   Prayer For All Needs
   
Submit Lyrics, Sermons
   
Contact Higher Praise
   
Advertising 
   Privacy Policy
//
He Died For You,  Click For Answer! This Is Who Jesus Is Video

'
 
0-9 A B C D E F G H I J K L M N O P Q R S T U V W X Y Z
.

//
Click For Printable...Version Of This File
 

American Tune


by Simon And Garfunkel




#----------------------------------PLEASE NOTE---------------------------------#
#This file is the author's own work and represents their interpretation of the #
#song. You may only use this file for private study, scholarship, or research. #
#------------------------------------------------------------------------------##

an american tune

Capo II
half note = 86
4/4

   C                   F       C          G       C          G

--0-------0-------
--1---------------
------------------
------------------

--1-------1-------
--1-------1-------
--0-------1-------
--0-----------0---

--0-------0-------
.-2-------0-------
--0-------0-------
--0-------0-------

------------------
.-3-------2-------
------0-------0---
------0-----------

------3-------3---
----------3-------
----------3-------
------------------

------------------
------------------
--3---------------
--3---------------

   ^   ^   ^   ^      ^   ^   ^   ^      ^   ^   ^   ^       ^   ^   ^   ^
(repeat above measure 4X)

   E      E/G#        Am                 E7                 Am

------------------
--0---------------
------------------
------------------

--0---------------
--5-----------5---
----------3-------
--------------1---

--1-------4-------
----------5-------
------4-----------
----------2-------

------------------
------------------
------------------
------2-----------

------------------
------0-----------
------------------
--0---------------

--0-------4-------
--5---------------
--0-----------0---
------------------

   ^   ^   ^   ^      ^   ^   ^   ^      ^   ^   ^   ^      ^   ^   ^   ^


       C              F       C          G       C          G   Am  G/B G7

--0---------------
--1---------------
------------------
--------------1---

------1---1-------
--1-------1-------
--0-------1-------
--0---1---3-------

----------0-------
--2---2---0-------
--0-------0-------
------------------

--------------2---
--3-----------2---
------0-------2---
------------------

----------3-------
----------3-------
----------3-------
------0---2-------

------------------
------------------
--3---------------
--3---------------

   ^   ^   ^   ^      ^   ^   ^   ^      ^   ^   ^   ^      ^   ^   ^   ^


   C       G#dim7     Am                 E       E7         Am

------------------
--------------0---
------------------
----------0-------

--1-------3-------
--1-------1-------
--0-------3-------
--1---------------

--0-------1-------
--2---------------
--1---------------
------------------

------2-------3---
------2-----------
------2-------2---
------2-------2---

--3-------2-------
--0-------0-------
------------------
--0---------------

------------------
------------------
--0---------------
------------------

   ^   ^   ^   ^      ^   ^   ^   ^      ^   ^   ^   ^      ^   ^   ^   ^


   C9                 F                  G                  F

------------------
------------------
------------------
------------------

--3-----------0---
--1-----------1---
--0-----------0---
--1-----------1---

--3-------3-------
--2-------2-------
----------0-------
--2-------2-------

------2-----------
------3-----------
------0-----------
--3---3-----------

--3---------------
------------------
------------------
------------------

------------------
--1---------------
--3---------------
------------------

   ^   ^   ^   ^      ^   ^   ^   ^      ^   ^   ^   ^      ^   ^   ^   ^


   C                  F       C          G     G#dim7       Am

------------------
--1-------0-------
--3-------1-------
------------------

--1-----------1---
--1-------1-------
--0-------0-------
--------------1---

--0-------0-------
--2-------0-------
--0-------1-------
----------2-------

------2-----------
--3---------------
----------0-------
------2-----------

--3---------------
----------3-------
------------------
--0---------------

------------------
------------------
--3---------------
------------------

   ^   ^   ^   ^      ^   ^   ^   ^      ^   ^   ^   ^      ^   ^   ^   ^

   A7                 D7                 G  Am  G/B  G7     C       G

------0-----------
----------2-------
--------------1---
--0-------3-------

--2-------2-------
--1---------------
--0---1---3-------
--1-------0-------

--0-----------0---
--2---2-------2---
------------------
--0-------0-------

------------------
--0---------------
------------------
------------------

--0---------------
------------------
------0---2-------
--3---------------

------------------
------------------
--3---------------
----------3-------

   ^   ^   ^   ^      ^   ^   ^   ^      ^   ^   ^   ^      ^   ^   ^   ^

   D                  G       C          F       C          G

--2---------------
----------0-------
--1---------------
------------------

--3-----------3---
--0-------1-------
--1-------1-------
--0-----------0---

--2-------2-------
----------0-------
--2---2---0-------
----------0-------

--0---0-----------
------0-------2---
--3-----------2---
------0-----------

------------------
----------3-------
----------3-------
------------------

------------------
--3---------------
------------------
--3---------------

   ^   ^   ^   ^      ^   ^   ^   ^      ^   ^   ^   ^      ^   ^   ^   ^


   E       E/G#       Am     Dm7         C                  G6      G

------------------
----------5-------
------3-----------
------------------

------------------
----------6-------
--5-----------5---
--5-------3-------

--1---S---4----S--
--5-------5-------
--5-------5-------
--4-------4-------

------------------
----------0---0---
------------------
------------------

------------------
------------------
--3---------------
------------------

--0-------4-------
--5---------------
------------------
--3---3---3-------

   ^   ^   ^   ^      ^   ^   ^   ^      ^   ^   ^   ^      ^   ^   ^   ^


                                       _____________________________________
                                      
1.
   C                                  

--0-------0-------
--0-------0-------
--0-------0-------
--0---------0-----


--1-------1-------
--1-------1-------
--1-------1-------
--1-------1-------


--0-------0-------
--0-------0-------
--0-------0-------
--0-----0--------.


------2-----------
------------------
------------------
--------------2--.


--3-----------3---
------3-------3---
------3-------3---
------3-----------


------------------
------------------
------------------
------------------

   ^   ^   ^   ^      ^   ^   ^   ^      ^   ^   ^   ^      ^   ^   ^   ^

______________________________________

2.

  C

--0-------0-------
--0-------0-------
--0-----------0---
------0-----------

--1-------1-------
--1-------1-------
--1-----------1---
------1---------1-

--0-------0-------
--0-------0-------
--0-------0---0---
------0-------0---

------------------
------------------
------------------
--2-------0h2-----

------3-------3---
------3-------3---
------3-------3---
------------------

------------------
------------------
------------------
------------------

   ^   ^   ^   ^      ^   ^   ^   ^      ^   ^   ^   ^      ^   ^   ^   ^

       G/B Am         G                                     Am

------------------
------------------
------------------
------------------

--1---3---1-------
--0-----------0---
----------0-------
--------------1---

--0---0---0-------
--0-------0-------
------0-------0---
----------2-------

--------------0---
------0-----------
------------------
------2-----------

--3---2---0-------
------------------
------------------
--0---------------

------------------
--3---------------
--3---------------
------------------

   ^   ^   ^   ^      ^   ^   ^   ^      ^   ^   ^   ^      ^   ^   ^   ^


   Ebdim7             G7/D               F                2/4(C)

--------------2---
--------------1---
------1-----------
----------

----------1-------
----------0-------
------1-----------
----------

------2-----------
------0-----------
------2-----------
------0---

--1---------------
--0---------------
--3-------2---0---
----------

------------------
------------------
------------------
--3-------

------------------
------------------
------------------
----------

   ^   ^   ^   ^      ^   ^   ^   ^      ^   ^   ^   ^      ^   ^

  4/4
   G          G6      G7        G        C

------------------
------------------
--------------0---
------0-----------

--0---------0-----
------------0-----
--------------1---
------1---------1-

--------0-------0-
--------0-------0-
----------0---0---
------0-------0---

------0-------2---
------3-------0---
------2-----------
--2-------0h2-----

------------------
------------------
--3-----------3---
------------------

--3-------3-------
--3-------3-------
------------------
------------------

   ^   ^   ^   ^      ^   ^   ^   ^      ^   ^   ^   ^      ^   ^   ^   ^


                         G/B  Am         G7

------------------
------------------
----------1-------
------------------

----------1---1---
--1---3---1-------
--0-----------0---
----------0-------

------------------
--0---0---0-------
--0---------------
------0-------0---

------2-----------
--------------0---
------0-----------
------------------

--3---------------
--3---2---0-------
------------------
------------------

------------------
------------------
--3---------------
--3---------------

   ^   ^   ^   ^      ^   ^   ^   ^      ^   ^   ^   ^      ^   ^   ^   ^


  Am                  Ebdim7             G7/D               F

------------------
--------------2---
--------------1---
------1-----------

--------------1---
----------1-------
----------0-------
------1-----------

----------2-------
------2-----------
------0-----------
------2-----------

------2-----------
--1---------------
--0---------------
--3-------2---0---

--0---------------
------------------
------------------
------------------

------------------
------------------
------------------
------------------

   ^   ^   ^   ^      ^   ^   ^   ^      ^   ^   ^   ^      ^   ^   ^   ^

  2/4
   C          G         G6       G7          G      C

----------
------------------
------------------
--0-----------0---

----------
--0---------------
------------------
--1-----------1---

------0---
------------0---0-
------------------
--0-------0---0---

----------
------0-------2---
------3-------0---
------2-----------

--3-------
------------------
------------------
--3---------------

----------
--3-------3-------
--3-------3-------
------------------

   ^   ^      ^   ^   ^   ^      ^   ^   ^   ^      ^   ^   ^   ^

                                                            F       C

------0-----------
------------------
--0---------------
--1---------------

------1---------1-
--------------1---
------1-------1---
--1-------1-------

------0-------0---
----------0-------
----------0-------
--2---2---0-------

--2-------0h2-----
------2-----------
------------------
--3-----------2---

------------------
--3---------------
------------------
----------3-------

------------------
------------------
------------------
------------------

   ^   ^   ^   ^      ^   ^   ^   ^      ^   ^   ^   ^      ^   ^   ^   ^

   G       C          G                  E7     E/G#        Am

------------------
------------------
------------------
--0---------------

--0-------1-------
--0-----------0---
------------------
--5-----------5---

--0-------0-------
--0-------0-------
--1---S---4----S--
----------5-------

------0-------2---
------0-----------
------------------
------------------

----------3-------
------------------
------------------
------0-----------

--3---------------
--3---------------
--0-------4-------
--5---------------

   ^   ^   ^   ^      ^   ^   ^   ^      ^   ^   ^   ^      ^   ^   ^   ^

   E7                 Am                     C              F       C

------------------
------------------
--0---------------
--1---------------

----------3-------
--------------1---
------1---1-------
--1-------1-------

------4-----------
----------2-------
----------0-------
--2---2---0-------

------------------
------2-----------
--------------2---
--3-----------2---

------------------
--0---------------
----------3-------
----------3-------

--0-----------0---
------------------
------------------
------------------

   ^   ^   ^   ^      ^   ^   ^   ^      ^   ^   ^   ^      ^   ^   ^   ^

   G       C          G  Am  G/B  G7     C     G#dim7       Am

------------------
--------------1---
------------------
------------------

--0-------1-------
--0---1---3-------
--1-------3-------
--------------1---

--0-------0-------
------------------
--0-------1-------
----------2-------

------0-------2---
------------------
------2-------3---
------2-----------

----------3-------
------0---2-------
--3-------2-------
--0---------------

--3---------------
--3---------------
------------------
------------------

   ^   ^   ^   ^      ^   ^   ^   ^      ^   ^   ^   ^      ^   ^   ^   ^

   E                  Am                 C9                 F

------------------
------------------
------------------
------------------

--0-----------0---
----------1-------
--3-----------0---
--1-----------1---

--1-------1-------
------2-------2---
--3-------3-------
--2-------2-------

------2-----------
------------------
------2-----------
------3-----------

------------------
--0---------------
--3---------------
------------------

--0---------------
------------------
------------------
--1---------------

   ^   ^   ^   ^      ^   ^   ^   ^      ^   ^   ^   ^      ^   ^   ^   ^

   G                  F           C                         F       C

------------------
------------------
--------------0---
--1-------0-------

--0-----------0---
--1-----------1---
----------1-------
--1-------1-------

--0-------0-------
--2-----------0---
------0-----------
--2-------0-------

------0-----------
--3---2---0-------
--2---------------
--3---3-------2---

------------------
--------------3---
------------------
----------3-------

--3---------------
------------------
------------------
------------------

   ^   ^   ^   ^      ^   ^   ^   ^      ^   ^   ^   ^      ^   ^   ^   ^

   G      G#dim7      Am                 A7                 D7

--3-------1-------
--0---------------
------0-----------
------2-----0-----

--0-------0-------
--1-----------1---
--2-------2-------
--1-------1-------

--0-------1-------
--2-------2-------
--0-----------0---
--2---------------

------0---0-------
------2-----------
------------------
--0-----------0---

------------------
--0---------------
--0---------------
------------------

--3---------------
------------------
------------------
------------------

   ^   ^   ^   ^      ^   ^   ^   ^      ^   ^   ^   ^      ^   ^   ^   ^

   G  Am  G/B  G7     C       G          D                  G       C

--------------1---
--0-------3-------
--------------2---
----------0-------

--0---1---3-------
--1-------0-------
----------3-------
--0-------1-------

------------------
--0-------0-------
------2-----------
--0-------0-------

------------------
------------------
--0---------------
------0-----------

------0---2-------
--3---------------
------------------
----------3-------

--3---------------
----------3-------
------------------
--3---------------

   ^   ^   ^   ^      ^   ^   ^   ^      ^   ^   ^   ^      ^   ^   ^   ^

   F       C          G                  E       E/G#       Am     Dm7

--1---------------
------------------
------------------
----------5-------

--1-------1-------
--0-----------0---
------------------
----------6-------

--2---2---0-------
--0-------0-------
--1---S---4---S---
--5-------5-------

--3-----------2---
------0-----------
------------------
----------0---0---

----------3-------
------------------
------------------
------------------

------------------
--3---------------
--0-------4---S---
--5---------------

   ^   ^   ^   ^      ^   ^   ^   ^      ^   ^   ^   ^      ^   ^   ^   ^

   C                  G                  C                  Dm/F        C

--0---------------
------------------
--0---------------
------0---1---0---

--1-----------1---
--0-----------0---
--1-----------1---
--3-----------1---

--0-------0-------
----------0-------
--0-------0-------
--2---0---2---0---

------2-----------
------0-----------
------2-----------
--3---------------

--3---------------
------------------
--3---------------
--------------3---

------------------
--3---------------
------------------
------------------

   ^   ^   ^   ^      ^   ^   ^   ^      ^   ^   ^   ^      ^   ^   ^   ^

                      G6  G              F       Em         C     Csus4

------------------
--0---------------
------------------
------------------

------3---1-------
--0---3-----------
--1---------------
--1-------1-------

------------------
--0-----------0---
--2---2---0-------
----------0---0---

--2---------------
----------0-------
--3-------2---0---
------2---3---2---

------------------
------------------
------------------
--3---------------

------------------
--3---------------
------------------
------------------

   ^   ^   ^   ^      ^   ^   ^   ^      ^   ^   ^   ^      ^   ^   ^   ^

   G           G7    C/G(hold)

----------3---1---
--0--------

----------0-------
--1--------

--0-------0-------
--0--------

--0---------------
--2--------

------------------
--3--------

------3-----------
--3--------

   ^   ^   ^   ^


verse 1:
Many's the time I've been mistaken,
and many times confused
Yes, and I've always felt forsaken,
and certainly misused.
Ah, but I'm all right, I'm all right.
I'm just weary to my bones.
Still you don't expect to be bright and bonvivant,
so far away from home,
so far away from home.

verse 2:
And I don't know a soul who's not been battered.
I don't have a friend who feels at ease.
I don't know a dream that's not been shattered,
or driven to it's knees.
Ah, but it's all right.  It's all right.
For we've lived so well so long.
Still, when I think of the road we're travelin' on,
I wonder what's gone wrong.
I can't help but wonder what's gone wrong.

Part B

And I dreamed I was dying.
I dreamed that my soul rose unexpectedly,
and looking back down at me, smiled reassuringly.
And I dreamed I was flying,
and high up above my eyes could clearly see
the Statue of Liberty sailing away to sea.
And I dreamed I was flying.
And we come on the ship they call the Mayflower.
We come on the ship that sailed the moon.
We come in age's most uncertain hours,
and sing an American tune.
Oh, and it's all right, it's all right,
it's all right.
You can't be forever blessed.
Still tomorrow's gonna be another working day
and I'm tryin' to get some rest;
that's all - I'm trying to get some rest.
 


/
How To Set Up Higher Praise As Your Home Page
Copyright 1999, Higher Praise HigherPraise,Inc. All rights reserved. Terms of Use

Enjoy A Life Changing Experience

 
 
 
HigherPraise, Higher Praise, HigherPraise, Higher Praise, HigherPraise

Members..Sign Up. LogIn

 
 

Higher Praise Other Sites
 
 

HigherPraise.org/
Praise And Worship
www.higherpraise.org

HigherPraise.net
Christian Resources
www.higherpraise.net

HigherPraiseTube.com
Videos And Audios
www.higherpraisetube.com.


ChristianLyrics.org

Lyrics And Chrords
www.christianlyrics.org

ChristianChordsLyrics

Lyrics And Chrords
www.christianchordslyrics.com

ChristianChordLyrics

Lyrics And Chrords
www.christianchordlyrics.com

WorshipLyrics.org
10.000 Illustrations
www.worshiplyrics.org

WorshipLyrics.net
10.000 Illustrations
www.worshiplyrics.net

PraiseLyrics.com
PowerPoint Lyrics

www.praiselyrics.com

PraiseLyrics.org
PowerPoint Lyrics

www.praiselyrics.org

1GodTube.com
Chistian Videos

www1godtube..com

OneGodTube.com
Chistian Videos

www.onegodtube..com

 

/
Copyright 1999 - 2019, Higher Praise™ HigherPraise™,Inc. All rights reserved. Terms of Use