Higher Praise - Guitar Chords, Lyrics  GuitarTabs -  Praise nad Worship Music And Christian Songs

Higher Praise - Guitar Tabs, Guitar Chords, Lyrics
   Lyrics, Chords And Tabs
   Popular Lyrics Chords Tab
   Power Point Lyrics
   Praise & Worship Music
   Christian Music Videos
   15900 Videos & Audios
   Midi Files
   Worship Questions
   Christmas Chords, Lyrics
   Lyrics, Chords Tabs Rated

Sermon Outlines And Audio Sermons
   9344 Sermon Outlines
   N.T. Sermon Outlines
   O.T. Sermon Outlines
   Special Guest Outlines
   10.000 Illustrations
   Sunday School Studies
   Bible College Studies
   Greatest Preachers
   Bible Research Tools
Audio Sermons
   2895 Audio Sermons
   85 Sermon Videos
   291 Special Guests Serm

   Complete Audio Bible
Higher Praise Sunday School Teaching
   Children's NT Studies
   Children's OT Studies

   98 Children's Midis
   Gospel For Kids Movie
   Children's JESUS Film
Higher Praise Christian Video Library ,Videos
   Christian Television
   TBN TV Live
   15,000 Videos - HP Tube
   712 Youth Music Vids
  Christian Video Library
   Praise Videos #1 & #2
   85 Sermon Videos
   Prophecy Film -Videos
   JESUS Film -Video
   Childrens JESUS Film
   Gospel For Kids Movie
   Passion Of The Christ
   Noah, Sodom, Sinai, Ark
   Tsunami Videos Photos
News And Information
   Testimonies
   Submit Lyrics, Tabs, Serm
   10.000 Illustrations
   Bible College Course
   Clipart & Web Graphics
   Greatest Preachers
   Complete Talking Bible
   Christian Chat Rooms
   Links Church Resource
   HP Statement Of Faith
Download Clipart
   Audio Sermons
   Clipart & Web Graphics
   Church Administration
   Bible Study Software
   Screen Savers Software
   Verse A Day Software
   Educational Games
   Trade Center Photos

   Soft. Search Engine
Higher Praise News
   Current News
    Archived News
   Submit News
   Newsletter   Higher Praise Interact Prayer
   Prayer For All Needs
   
Submit Lyrics, Sermons
   
Contact Higher Praise
   
Advertising 
   Privacy Policy
//
He Died For You,  Click For Answer! This Is Who Jesus Is Video

'
 
0-9 A B C D E F G H I J K L M N O P Q R S T U V W X Y Z
.

//
Click For Printable...Version Of This File
 

America


by Simon And Garfunkel





America
-------
Words and music by Paul Simon 
As peformed by Simon and Garfunkel on the album Bookends 

Play the F's with your thumb hooked over the neck for the bass note...

Intro (play twice, 1st time with fill 1, 2nd time w fill 2)
-----
Capo III

   C             Cmaj9         Am7           C (G bass)
3/4, . , . , .   , . , . , .   , . , . , .   , . , . , .

-----0-0-0-0-
-----0-0-0-0-
-----0-0-0-0-
-----0-0-0-0-


-----1-1-1-1-
-----1-1-1-1-
-----1-1-1-1-
-----1-1-1-1-


-----0-0-0-0-
-----0-0-0-0-
-----0-0-0-0-
-----0-0-0-0-


-----2-2-2-2-
-----0-0-0-0-
-----2-2-2-2-
-----2-2-2-2-


-3-----------
-2-----------
-0-----------
-------------


-------------
-------------
-------------
-3-----------

   Mmm           mmm           mmm           mmm    mmm

  F                           (with fills)
  , . , . , .   , . , . , .   , . , . , .   , . , . , .

-----1-1-1-1-
-----1-1-1-1-
-1---1-1-1---
-1---1-1-1---

-----1-1-1-1-
-----1-1-1-1-
-1---1-1-1---
-1h3-1-1-1---

-----2-2-2-2-
-----2-2-2-2-
-2h3-2-2-2---
-2---2-2-2---

-----3-3-3-3-
-----3-3-3-3-
-3---3-3-3---
-3---3-3-3---

-------------
-------------
-------------
-------------

-1-----------
-1-----------
-------------
-------------

  Mmmmmm

1st time with fill 1
2nd time with fill 2

Verse 1
----- -
  C             Cmaj9         Am7           C (G bass)
  , . , . , .   , . , . , .   , . , . , .   , . , . , .

-----0-0-0-0-
-----0-0-0-0-
-----0-0-0-0-
-----0-0-0-0-

-----1-1-1-1-
-----1-1-1-1-
-----1-1-1-1-
-----1-1-1-1-

-----0-0-0-0-
-----0-0-0-0-
-----0-0-0-0-
-----0-0-0-0-

-----2-2-2-2-
-----0-0-0-0-
-----2-2-2-2-
-----2-2-2-2-

-3-----------
-2-----------
-0-----------
-------------

-------------
-------------
-------------
-3-----------

  Let us be     lovers we'll  marry our     fortunes 

  F
  , . , . , .   , . , . , .   , . , . , .   , . , . , .

-----1-1-1-1-
-----1-1-1-1-
-1---1-1-1---
-1---1-1-1---

-----1-1-1-1-
-----1-1-1-1-
-1---1-1-1---
-1h3-1-1-1---

-----2-2-2-2-
-----2-2-2-2-
-2h3-2-2-2---
-2---2-2-2---

-----3-3-3-3-
-----3-3-3-3-
-3---3-3-3---
-3---3-3-3---

-------------
-------------
-------------
-------------

-1-----------
-1-----------
-------------
-------------

  together

  C             Cmaj9         Am            
  , . , . , .   , . , . , .   , . , . , .   , . , . , .

-----0-0-0-0-
-----0-0-0-0-
-----0-0-0-0-
-----0-0-0-0-

-----1-1-1-1-
-----1-1-1-1-
-----1-1-1-1-
-----1-1-1-1-

-----0-0-0-0-
-----0-0-0-0-
-----2-2-2-2-
-----2-2-2-2-

-----2-2-2-2-
-----0-0-0-0-
-----2-2-2-2-
-----2-2-2-2-

-3-----------
-2-----------
-0-----------
-0-----------

-------------
-------------
-------------
-------------

  I've got some real estate   here in my    bag

  Am                          Em7            
  (with Fill 3)
  , . , . , .   , . , . , .   , . , . , .   , . , . , .

-----0-0-0-0-
-----0-0-0-0-
-----0-0-0-0-
-----0-0-0-0-

-----1-1-1-1-
-----1-1-1-1-
-----0-0-0-0-
-----0-0-0-0-

-----2-2-2-2-
-----2-2-2-2-
-----0-0-0-0-
-----0-0-0-0-

-----2-2-2-2-
-----2-2-2-2-
-----0-0-0-0-
-----0-0-0-0-

-0-----------
-0-----------
-----2-2-2-2-
-----2-2-2-2-

-------------
-------------
-0-----------
-0-----------

                                    So we   bought a pack of

  A7                          Em7  
  , . , . , .   , . , . , .   , . , . , .   , . , . , .

-----0-0-0-0-
-----0-0-0-0-
-----0-0-0-0-
-----0-0-0-0-

-----2-2-2-2-
-----2-2-2-2-
-----0-0-0-0-
-----0-0-0-0-

-----0-0-0-0-
-----0-0-0-0-
-----0-0-0-0-
-----0-0-0-0-

-----2-2-2-2-
-----2-2-2-2-
-----0-0-0-0-
-----0-0-0-0-

-0-----------
-0-----------
-----2-2-2-2-
-----2-2-2-2-

-------------
-------------
-0-----------
-0-----------

  cigarettes              and Mrs           Wagner 

  A7                          D             C
  , . , . , .   , . , . , .   , . , . , .   , . , . , .

-----0-0-0-0-
-----0-0-0-0-
-----2-2-2-2-
-----0-0-0-0-

-----2-2-2-2-
-----2-2-2-2-
-----3-3-3-3-
-----1-1-1-1-

-----0-0-0-0-
-----0-0-0-0-
-----2-2-2-2-
-----0-0-0-0-

-----2-2-2-2-
-----2-2-2-2-
-0-----------
-----2-2-2-2-

-0-----------
-0-----------
-------------
-3-----------

-------------
-------------
-------------
-------------

  pies                    and walked        off       to

  G             C             Cmaj9         Am7           C/G (w fill 4)
  , . , . , .   , . , . , .   , . , . , .   , . , . , .   , . , . , .  

-------------
-0---0-0-0-0-
-----0-0-0-0-
-----0-0-0-0-
-----0-0-0-0-

-0---1---3---
-----1-1-1-1-
-----1-1-1-1-
-----1-1-1-1-
-----1-1-1-1-

-------------
-----0-0-0-0-
-----0-0-0-0-
-----0-0-0-0-
-----0-0-0-0-

-------------
-----2-2-2-2-
-----0-0-0-0-
-----2-2-2-2-
-----2-2-2-2-

-----0---2---
-3-----------
-2-----------
-0-----------
-------------

-3-----------
-------------
-------------
-------------
-3-----------

  look for America              

  F
  , . , . , .   , . , . , .   , . , . , .   , . , . , .

-----1-1-1-1-
-----1-1-1-1-
-1---1-1-1---
-1---1-1-1---

-----1-1-1-1-
-----1-1-1-1-
-1---1-1-1---
-1h3-1-1-1---

-----2-2-2-2-
-----2-2-2-2-
-2h3-2-2-2---
-2---2-2-2---

-----3-3-3-3-
-----3-3-3-3-
-3---3-3-3---
-3---3-3-3---

-------------
-------------
-------------
-------------

-1-----------
-1-----------
-------------
-------------


Verse 2 (play as verse 1)
----- -
"Kathy," I said, as we boarded a Greyhound in Pittsburgh
"Michigan seems like a dream to me now."  <-=AA
                                   (w fill 3)
  G
  , . , . , .   , . , . , .   , . , . , .   , . , . , .

-----3-3-3-3-
-----3-3-3-3-
-----3-3-3-3-
-----3-3-3-3-

-----0-0-0-0-
-----0-0-0-0-
-----0-0-0-0-
-----0-0-0-0-

-----0-0-0-0-
-----0-0-0-0-
-----0-0-0-0-
-----0-0-0-0-

-----0-0-0-0-
-----0-0-0-0-
-----0-0-0-0-
-----0-0-0-0-

-------------
-------------
-------------
-------------

-3-----------
-3-----------
-3-----------
-3-----------

  It took me    four days to hitchike from Saginaw

  D             G             D             Cmaj7
  , . , . , .   , . , . , .   , . , . , .   , . , . , .

-----2-2-2-2-
-----3-3-3-3-
-----2-2-2-2-
-----0-0-0-0-

-----3-3-3-3-
-----0-0-0-0-
-----3-3-3-3-
-----0-0-0-0-

-----2-2-2-2-
-----0-0-0-0-
-----2-2-2-2-
-----0-0-0-0-

-0-----------
-----0-0-0-0-
-0-----------
-----2-2-2-2-

-------------
-------------
-------------
-3-----------

-------------
-3-----------
-------------
-------------

  I've          come      to  look   for  A-mer

                C
  , . , . , .   , . , . , .   , . , . , .   

-----0-0-0-0-
-----0-0-0-0-
-----0-0-0-0-

-----0-0-0-0-
-----1-1-1-1-
-----1-1-1-1-

-----0-0-0-0-
-----0-0-0-0-
-----0-0-0-0-

-----2-2-2-2-
-----2-2-2-2-
-----2-2-2-2-

-3-----------
-3-----------
-3-----------

-------------
-------------
-------------

                ica
Bridge
------
  Bbmaj7
  , . , . , .   , . , . , .   , . , . , .   , . , . , .

-----1-1-1-1-
-----1-1-1-1-
-----1-1-1-1-
-----1-1-1-1-

-----3-3-3-3-
-----3-3-3-3-
-----3-3-3-3-
-----3-3-3-3-

-----2-2-2-2-
-----2-2-2-2-
-----2-2-2-2-
-----2-2-2-2-

-----3-3-3-3-
-----3-3-3-3-
-----3-3-3-3-
-----3-3-3-3-

-1-----------
-1-----------
-1-----------
-1-----------

-------------
-------------
-------------
-------------

  Laughing on the bus                             playing

  C             
  , . , . , .   , . , . , .   , . , . , .   , . , . , .

-----0-0-0-0-
-----0-0-0-0-
-----0-0-0-0-
-----0-0-0-0-

-----1-1-1-1-
-----1-1-1-1-
-----1-1-1-1-
-----1-1-1-1-

-----0-0-0-0-
-----0-0-0-0-
-----0-0-0-0-
-----0-0-0-0-

-----2-2-2-2-
-----2-2-2-2-
-----2-2-2-2-
-----2-2-2-2-

-3-----------
-3-----------
-3-----------
-3-----------

-------------
-------------
-------------
-------------

  games with the faces 

  Bbmaj7
  , . , . , .   , . , . , .   , . , . , .   , . , . , .

-----1-1-1-1-
-----1-1-1-1-
-----1-1-1-1-
-----1-1-1-1-

-----3-3-3-3-
-----3-3-3-3-
-----3-3-3-3-
-----3-3-3-3-

-----2-2-2-2-
-----2-2-2-2-
-----2-2-2-2-
-----2-2-2-2-

-----3-3-3-3-
-----3-3-3-3-
-----3-3-3-3-
-----3-3-3-3-

-1-----------
-1-----------
-1-----------
-1-----------

-------------
-------------
-------------
-------------

  She said the man in the     gabardine     suit was a 

  C             
  , . , . , .   , . , . , .   , . , . , .   , . , . , .

-----0-0-0-0-
-----0-0-0-0-
-----0-0-0-0-
-----0-0-0-0-

-----1-1-1-1-
-----1-1-1-1-
-----1-1-1-1-
-----1-1-1-1-

-----0-0-0-0-
-----0-0-0-0-
-----0-0-0-0-
-----0-0-0-0-

-----2-2-2-2-
-----2-2-2-2-
-----2-2-2-2-
-----2-2-2-2-

-3-----------
-3-----------
-3-----------
-3-----------

-------------
-------------
-------------
-------------

  spy

  F
  , . , . , .   , . , . , .   , . , . , .   , . , . , .

-----1-1-1-1-
-----1-1-1-1-
-----1-1-1-1-
-----1-1-1-1-

-----1-1-1-1-
-----1-1-1-1-
-----1-1-1-1-
-----1-1-1-1-

-----2-2-2-2-
-----2-2-2-2-
-----2-2-2-2-
-----2-2-2-2-

-----3-3-3-3-
-----3-3-3-3-
-----3-3-3-3-
-----3-3-3-3-

-------------
-------------
-------------
-------------

-1-----------
-1-----------
-1-----------
-1-----------

  I said "Be    careful, his  bowtie is     really a 

  C             Cmaj9         Am7           C/G
  , . , . , .   , . , . , .   , . , . , .   , . , . , .

-----0-0-0-0-
-----0-0-0-0-
-----0-0-0-0-
-----0-0-0-0-

-----1-1-1-1-
-----1-1-1-1-
-----1-1-1-1-
-----1-1-1-1-

-----0-0-0-0-
-----0-0-0-0-
-----0-0-0-0-
-----0-0-0-0-

-----2-2-2-2-
-----0-0-0-0-
-----2-2-2-2-
-----2-2-2-2-

-3-----------
-2-----------
-0-----------
-------------

-------------
-------------
-------------
-3-----------

  camera

  D9                          Fmaj7
  , . , . , .   , . , . , .   , . , . , .   , . , . , .

-----0-0-0-0-
-----0-0-0-0-
-----0-0-0-0-
-----0-0-0-0-

-----1-1-1-1-
-----1-1-1-1-
-----1-1-1-1-
-----1-1-1-1-

-----2-2-2-2-
-----2-2-2-2-
-----2-2-2-2-
-----2-2-2-2-

-----0-0-0-0-
-----0-0-0-0-
-----3-3-3-3-
-----3-3-3-3-

-----0-0-0-0-
-----0-0-0-0-
-----0-0-0-0-
-----0-0-0-0-

-2-----------
-2-----------
-1-----------
-1-----------

  
Verse 3   (play as verse 1)
----- -
"Toss me a cigarette I think there's one in my raincoat."
"We smoked the last one an hour ago."
So I looked at the scenery, she read her magazine 
And the moon rose over an open field.

Verse 4  (play as verse 2)
----- -
"Kathy, I'm lost", I said, though I knew she was sleeping
"I'm empty and aching and I don't know why."

  G
  , . , . , .   , . , . , .   , . , . , .   , . , . , .

-----3-3-3-3-
-----3-3-3-3-
-----3-3-3-3-
-----3-3-3-3-

-----0-0-0-0-
-----0-0-0-0-
-----0-0-0-0-
-----0-0-0-0-

-----0-0-0-0-
-----0-0-0-0-
-----0-0-0-0-
-----0-0-0-0-

-----0-0-0-0-
-----0-0-0-0-
-----0-0-0-0-
-----0-0-0-0-

-------------
-------------
-------------
-------------

-3-----------
-3-----------
-3-----------
-3-----------

  Counting the  cars on the   New Jersey    Turnpike. They've

  D             G             D             Cmaj7
  , . , . , .   , . , . , .   , . , . , .   , . , . , .

-----2-2-2-2-
-----3-3-3-3-
-----2-2-2-2-
-----0-0-0-0-


-----3-3-3-3-
-----0-0-0-0-
-----3-3-3-3-
-----0-0-0-0-


.----2-2-2-2-
-----0-0-0-0-
-----2-2-2-2-
-----0-0-0-0-


.-0----------
-----0-0-0-0-
-0-----------
-----2-2-2-2-


-------------
-------------
-------------
-3-----------


-------------
-3-----------
-------------
-------------

    All          come      to  look   for  A-mer

  D             G             D             
  , . , . , .   , . , . , .   , . , . , .   

-----0-0-0-0-
-----0-0-0-0-
-----0-0-0-0--


-----0-0-0-0-
-----1-1-1-1-
-----1-1-1-1--


-----0-0-0-0-
-----0-0-0-0-
-----0-0-0-0-.


-----2-2-2-2-
-----2-2-2-2-
-----2-2-2-2-.


-3-----------
-3-----------
-3------------


-------------
-------------
--------------

                ica

Outro  (repeat over and over) another guitar strums chords
-----
  C             C/B           Am7           C/G
  , . , . , .   , . , . , .   , . , . , .   , . , . , .

(0)----------
-------------
-------------
---------0---

---------1---
---------1---
---------1---
-------1-----

-----0-------
-----0-------
-----0-------
-----0-------

-------------
-------------
-------------
-------------

-3-----------
-2-----------
-0-----------
-------------

-------------
-------------
-------------
-3-----------


  Dm            
  , . , . , .   , . , . , .   , . , . , .   , . , . , .

-------------
-------------
---------1---
-------------

---------3---
---------3---
-------0-----
-0---1---3---

-----2-------
-----2-------
-----0-------
-------------

-0-----------
-------------
-------------
-------------

-------------
-3-----------
-2-----------
-----0---2---

-------------
-------------
-------------
-3-----------


All fills Capo III

Fill 1 
---- -
  F                           C     
  , . , . , .   , . , . , .   , . , . , .

-------------
-------------
-------------

---------1---
-3b-rb---1---
-------------

-----0h2-----
-------------
-------------

-0h2---------
-------------
-------------

-------------
-------------
-------------

-------------
-------------
-------------


Fill 2
---- -
  F                           C (verse1)                                
  , . , . , .   , . , . , .   , . , . , .

-------------
-0-----------
-------------

-------0-1---
---3p1-------
-------------

-----0-------
-------------
-0-----------

---2---------
---------0h2-
-------------

-3-----------
-------------
-------------

-------------
-------------
-------------


Fill 3 
---- -          emulates
  Am            voices =AA      Em7
  , . , . , .   , . , . , .   , . , . , .

-------------
-0---0---0---
-0-----------

---------1---
-1---3---1---
-0-----------

-----0h2-----
-0---0---0---
-0-----------

-0h2---------
-2---0---2---
-0-----------

-------------
-3---2---0---
-2-----------

-------------
-------------
-0-----------


Fill 4
---- -
  C/G           F             
  , . , . , .   , . , . , .   , . , . , .

-------------
-------------
-------------

-------------
-------------
-------------

-------------
-------------
-------------

-----0-------
-------------
-------------

-0h3---------
-------------
-------------

---------0---
-1-----------
-------------




 


/
How To Set Up Higher Praise As Your Home Page
Copyright 1999, Higher Praise HigherPraise,Inc. All rights reserved. Terms of Use

Enjoy A Life Changing Experience

 
 
 
HigherPraise, Higher Praise, HigherPraise, Higher Praise, HigherPraise

Members..Sign Up. LogIn

 
 

Higher Praise Other Sites
 
 

HigherPraise.org/
Praise And Worship
www.higherpraise.org

HigherPraise.net
Christian Resources
www.higherpraise.net

HigherPraiseTube.com
Videos And Audios
www.higherpraisetube.com.


ChristianLyrics.org

Lyrics And Chrords
www.christianlyrics.org

ChristianChordsLyrics

Lyrics And Chrords
www.christianchordslyrics.com

ChristianChordLyrics

Lyrics And Chrords
www.christianchordlyrics.com

WorshipLyrics.org
10.000 Illustrations
www.worshiplyrics.org

WorshipLyrics.net
10.000 Illustrations
www.worshiplyrics.net

PraiseLyrics.com
PowerPoint Lyrics

www.praiselyrics.com

PraiseLyrics.org
PowerPoint Lyrics

www.praiselyrics.org

1GodTube.com
Chistian Videos

www1godtube..com

OneGodTube.com
Chistian Videos

www.onegodtube..com

 

/
Copyright 1999 - 2019, Higher Praise™ HigherPraise™,Inc. All rights reserved. Terms of Use