Higher Praise - Guitar Chords, Lyrics  GuitarTabs -  Praise nad Worship Music And Christian Songs

Higher Praise - Guitar Tabs, Guitar Chords, Lyrics
   Lyrics, Chords And Tabs
   Popular Lyrics Chords Tab
   Power Point Lyrics
   Praise & Worship Music
   Christian Music Videos
   15900 Videos & Audios
   Midi Files
   Worship Questions
   Christmas Chords, Lyrics
   Lyrics, Chords Tabs Rated

Sermon Outlines And Audio Sermons
   9344 Sermon Outlines
   N.T. Sermon Outlines
   O.T. Sermon Outlines
   Special Guest Outlines
   10.000 Illustrations
   Sunday School Studies
   Bible College Studies
   Greatest Preachers
   Bible Research Tools
Audio Sermons
   2895 Audio Sermons
   85 Sermon Videos
   291 Special Guests Serm

   Complete Audio Bible
Higher Praise Sunday School Teaching
   Children's NT Studies
   Children's OT Studies

   98 Children's Midis
   Gospel For Kids Movie
   Children's JESUS Film
Higher Praise Christian Video Library ,Videos
   Christian Television
   TBN TV Live
   15,000 Videos - HP Tube
   712 Youth Music Vids
  Christian Video Library
   Praise Videos #1 & #2
   85 Sermon Videos
   Prophecy Film -Videos
   JESUS Film -Video
   Childrens JESUS Film
   Gospel For Kids Movie
   Passion Of The Christ
   Noah, Sodom, Sinai, Ark
   Tsunami Videos Photos
News And Information
   Testimonies
   Submit Lyrics, Tabs, Serm
   10.000 Illustrations
   Bible College Course
   Clipart & Web Graphics
   Greatest Preachers
   Complete Talking Bible
   Christian Chat Rooms
   Links Church Resource
   HP Statement Of Faith
Download Clipart
   Audio Sermons
   Clipart & Web Graphics
   Church Administration
   Bible Study Software
   Screen Savers Software
   Verse A Day Software
   Educational Games
   Trade Center Photos

   Soft. Search Engine
Higher Praise News
   Current News
    Archived News
   Submit News
   Newsletter   Higher Praise Interact Prayer
   Prayer For All Needs
   
Submit Lyrics, Sermons
   
Contact Higher Praise
   
Advertising 
   Privacy Policy
//
He Died For You,  Click For Answer! This Is Who Jesus Is Video

'
 
0-9 A B C D E F G H I J K L M N O P Q R S T U V W X Y Z
.

//
Click For Printable...Version Of This File
 

A Poem On The Underground Wall


by Simon And Garfunkel




#----------------------------------PLEASE NOTE---------------------------------#
#This file is the author's own work and represents their interpretation of the #
#song. You may only use this file for private study, scholarship, or research. #
#------------------------------------------------------------------------------##


A Poem on the Underground Wall  - Simon & Garfunkel
~~~~~~~~~~~~~~~~~~~~~~~~~~~~~~
>From "Parsley, Sage, Rosemary, and Thyme".


Capo 7th fret.
2/4 time (mostly).

   , . . . , . . .   , . . . , . . .   , . . . , . . .   , . . . , . . .

-----------------
-----------------
-----------------
-----------------


-----------------
-----------------
-----------------
-----------------


-tap-------------
-----------------
-----------------
-----------------


-guitar----------
-----------------
-----------------
-----------------


-x-------x-------
-x-------x-------
-x-------x-------
-x-------x-------


-----------------
-----------------
-----------------
-----------------



  , . . . , . . .   , . . . , . . .   , . . . , . . .   , . . . , . . .

-----------------
-----------------
-----------------
-----------------

-----------------
-----------------
-----------------
---0-------0-----

-----------------
-----------------
-----------------
-------0-------0-

-----------------
-----------------
-----------------
-----2-------2---

-3-------2-------
-----------------
-----------------
-----------------

-----------------
-3---------------
-3-------2-------
-0-------0-------



  , . . . , . . .   , . . . , . . .   , . . . , . . .   , . . . , . . .

-----------------
-----------------
-----------------
-----------------


---1-------------
-----0h1---0-----
---0-------0-----
-----0-----0-----


-------0---0---0-
---------------0-
-------0-------0-
---------------0-


-----2-----------
-----0h2-----0---
-----0-------0---
-----2-------2---


-3-------2---0---
-----------------
-----------------
-----------------


-----------------
-3-------3-------
-3-------2-------
-0-------0-------

  Mmm     mmm       mmm               Mmm     mmm       mmm         The

   , . . . , . . .   , . . . , . . .   , . . . , . . .   , . . . , . . .

-----------------
-----------------
-----------------
-----------------


---1-------------
-----0h1---0-----
---0-------0-----
---0-------0-----


-------0---0---0-
---------------0-
-------0-------0-
-------0-------0-


-----2-----------
-----0h2-----0---
-----0-------0---
-----2-------2---


-3-------2---0---
-----------------
-----------------
-----------------


-----------------
-3-------3-------
-3-------2-------
-0-------0-------

   last    train is  nearly due  The   underground is    closing soon  And

  , . . . , . . .   , . . . , . . .   , . . . , . . .   , . . . , . . .

-----------------
-----------------
-----------------
-----------------

---1-------------
-----0h1---0-----
---0-------0-----
-----0-----0-----

-------0---0---0-
---------------0-
-------0-------0-
---------------0-

-----2-----------
-----0h2-----0---
-----0-------0---
-----2-------2---

-3-------2---0---
-----------------
-----------------
-----------------

-----------------
-3-------3-------
-3-------2-------
-0-------0-------

  in  the dark  deserted station      Restless in   anticipation    A

  , . . . , . . .   , . . . , . . .   , . . . , . . .   , . . . , . . .

-----------------
-----------------
-----------------
-----------------

---1-------------
---0-------0-----
---1-------1-----
---0-------0-----

-------0---0---0-
-------0-------0-
-------0-------0-
---------------0-

-----2-----------
-----0-----------
-----2-----------
-----0h2-----2---

-3-------2---0---
-------------2---
-3-------2---0---
-----------------

-----------------
-3-------3-------
-----------------
-3-------3-------

  man waits in the  shadows

  , . . . , . . .   , . . . , . . .    , . . . , . . .   , . . . , . . .

-----------------
-----0-----0-----
---0-------0-----
-----3-----3-----

---0-------0-----
-----0---------0-
-------1-------1-
-----0---------0-

-------0-------0-
-----------------
-----------------
-----------------

-----0-------0---
-----2-------2---
-----2-----------
-----0-------0---

-----------------
-----------------
-3-------2---0---
-----------------

-3-------2-------
-0-------0-------
-----------------
-3-------3-------

                                His    restless eyes   leap and scratch At

  , . . . , . . .   , . . . , . . .   , . . . , . . .   , . . . , . . .

---3-------2-----
-----0-----0-----
---0-------0-----
-----3-----3-----

-------0-------0-
-----0---------0-
-------1-------1-
-----0---------0-

-----------------
-----------------
-----------------
-----------------

-----0-------0---
-----2-------2---
-----2-----------
-----0-------0---

-----------------
-----------------
-3-------2---0---
-----------------

-3-------2-------
-0-------0-------
-----------------
-3-------3-------

  all that they can touch or catch And hidden deep within his pocket

  , . . . , . . .   , . . . , . . .   , . . . , . . .   , . . . , . . .

---3-------2-----
-----0-----0-----
-----------------
-----------------

-------0-------0-
-----0---------0-
---1-------1-----
---0-------0-----

-----------------
-----------------
-------0-------0-
-------0-------0-

-----0-------0---
-----2-------2---
-----2-----------
-----0-----------

-----------------
-----------------
-3-------2---0---
-------------2---

-3-------2-------
-0-------0-------
-----------------
-3-------3-------

  Safe  within its  silent socket  He holds a colored   crayon

  , . . . , . . .   , . . . , . . .   , . . . , . . .   , . . . , . . .

-----------------
-----------------
-----------------
-----0-----0-----


---1-------1-----
-----0h1---0-----
---0-------0-----
-----0---------0-


-------0-------0-
---------------0-
-------0-------0-
-----------------


-----2-----------
-----0h2-----0---
-----0-------0---
-----2-------2---


-3-------2---0---
-----------------
-----------------
-----------------


-----------------
-3-------3-------
-3-------2-------
-0-------0-------

                                                                    Now

   , . . . , . . .   , . . . , . . .   , . . . , . . .   , . . . , . . .

-----------------
-----------------
-----------------
-----0-----------


---1-------1-----
-----0h1---0-----
---0-------0-----
-----0-----0-----


-------0-------0-
---------------0-
-------0-------0-
---------------0-


-----2-----------
-----0h2-----0---
-----0-------0---
-----2-------2---


-3-------2---0---
-----------------
-----------------
-----------------


-----------------
-3-------3-------
-3-------2-------
-0-------0-------

   from the tunnel's stony womb   The  carriage rides to meet the groom And

  , . . . , . . .   , . . . , . . .   , . . . , . . .   , . . . , . . .

-----------------
-----------------
-----------------
-----------------

---1-------1-----
-----0h1---0-----
---0-------0-----
-----0-----0-----

-------0-------0-
---------------0-
-------0-------0-
---------------0-

-----2-----------
-----0h2-----0---
-----0-------0---
-----2-------2---

-3-------2---0---
-----------------
-----------------
-----------------

-----------------
-3-------3-------
-3-------2-------
-0-------0-------

  opens wide its welcome doors But he hesitates         then withdraws

  , . . . , . . .   , . . . , . . .   , . . . , . . .   , . . . , . . .

-----------------
-----------------
-----------------
-----------------


---1-------1-----
---0-------0-----
---0-------0-----
-----0-----0-----


-------0-------0-
-------0-------0-
-------0-------0-
---------------0-


-----2-----------
-----0-------0---
-----0-----------
-----2-------2---


-3-------2---0---
-----------------
-----------------
-----------------


-----------------
-3-------3-------
-3-------3---2---
-0-------0-------

  Deeper  in  the   shadows

   , . . . , . . .   , . . . , . . .   , . . . , . . .

-----------------
-----0-----------
-0---------------


---0-------0-----
-----0-----------
-0---------------


-------0-------0-
-----0-strum-----
-0-strum---------


-----2-------2---
-----2-----------
-2---------------


-----------------
-----2-----------
-2---------------


-0-------0-------
-0---0-----------
-0---------------

                                                And the

  , . . . , . . .   , . . . , . . .   , . . . , . . .   , . . . , . . .

-0---------------
-0---------------
-0---------------
-0---------------

-0---------------
-0---------------
-0---------------
-0---------------

-0-strum---------
-0-strum---------
-0-strum---------
-0-strum---------

-2---------------
-2---------------
-2---------------
-2---------------

-2---------------
-2---------------
-2---------------
-2---------------

-0---------------
-0---------------
-0---------------
-0---------------

  train  is  gone   suddenly                                        On

  , . . . , . . .   , . . . , . . .   , . . . , . . .   , . . . , . . .

-2---------------
-2---------------
-2---------------
-2---------------

-3---------------
-3---------------
-3---------------
-3---------------

-2-strum---------
-2-strum---------
-2-strum---------
-2-strum---------

-0---------------
-0---------------
-0---------------
-0---------------

-0---------------
-0---------------
-0---------------
-0---------------

-----------------
-----------------
-----------------
-----------------

  wheels  spinning  silently                                      Like a

3/4 . . . , . . . , . . .2/4, . . . , . . .   , . . . , . . .

-0-----------------------
-0---------------
-0---------------

-1-----------------------
-1---------------
-1---------------

-0-strum-----------------
-2-strum---------
-2-strum---------

-2-----------------------
-2---------------
-2---------------

-3-----------------------
-0---------------
-0---------------

-------------------------
-----------------
-----------------

  gently  tapping litany                                And he

  , . . . , . . .   , . . . , . . .   , . . . , . . .   , . . . , . . .

-0---------------
-0---------------
-0---------------
-0---------------

-0---------------
-1---------------
-1---------------
-1---------------

-0-strum---------
-2-strum---------
-2-strum---------
-0-strum---------

-2---------------
-2---------------
-2---------------
-2---------------

-2---------------
-0---------------
-0---------------
-3---------------

-0---------------
-----------------
-----------------
-----------------

  holds his crayon  rosary                              Tighter in his

  , . . . , . . .   , . . . , . . .   , . . . , . . .   , . . . , . . .

-3---------------
-3-------3-------
-0---------------
-0---------------


-0---------------
-0-------0-------
-0---------------
-0---------------


-0-strum---------
-0-strum-0-strum-
-0-strum---------
-0-strum---------


-0---------------
-0-------0-------
-2---------------
-2---------------


-2---------------
-2-------2-------
-2---------------
-2---------------


-3---------------
-3-------2-------
-0---------------
-0---------------

  hand                                                               Now

   , . . . , . . .   , . . . , . . .   , . . . , . . .   , . . . , . . .

-----------------
-----------------
-----------------
-----------------


---1-------1-----
-----0-----0-----
---0-------0-----
-----0-----0-----


-------0-------0-
---------------0-
-------0-------0-
---------------0-


-----2-----------
-----0-------0---
-----0-------0---
-----2-------2---


-3-------2---0---
-----------------
-----------------
-----------------


-----------------
-3-------3-------
-3-------2-------
-0-------0-------

   from his pocket   quick he flashes  The crayon on the wall he slashes

  , . . . , . . .   , . . . , . . .   , . . . , . . .   , . . . , . . .

-----------------
-----------------
-----------------
-----------------

-----1-----1-----
-----0-----0-----
-----0-----0-----
-----0-----0-----

---------------0-
---------------0-
---------------0-
---------------0-

-----2-----------
-----0-------0---
-----0-------0---
-----2-------2---

-3-------2---0---
-----------------
-----------------
-----------------

-----------------
-3-------3-------
-3-------2-------
-0-------0-------

  Deep upon the advertising,       A  single  worded    poem comprising

  , . . . , . . .   , . . . , . . .   , . . . , . . .   , . . . , . . .

-----------------
-----------------
-----------------
-----0-----0-----


-----1-----1-----
-----0h1---0-----
---0-------0-----
-----0---------0-


---------------0-
---------------0-
-------0-------0-
-----------------


-----2-----------
-----0h2-----0---
-----0-------0---
-----2-------2---


-3-------2---0---
-----------------
-----------------
-----------------


-----------------
-3-------3-------
-3-------2-------
-0-------0-------

  Four    letters                                                And his

   , . . . , . . .   , . . . , . . .   , . . . , . . .   , . . . , . . .

---0-------------
-----------------
-----------------
-----0-----0-----


-----------1-----
-----0h1---0-----
---0-------0-----
-----0---------0-


-------0-------0-
---------------0-
-------0-------0-
-----------------


-----2-----------
-----0h2-----0---
-----0-------0---
-----2-------2---


-3-------2---0---
-----------------
-----------------
-----------------


-----------------
-3-------3-------
-3-------2-------
-0-------0-------

  heart is laughing screaming pounding The poem across the tracks rebounding

  , . . . , . . .   , . . . , . . .   , . . . , . . .   , . . . , . . .

---0-------------
-----------------
-----------------
-----------------

-----------1-----
-----0h1---0-----
---0-------0-----
-----0-----0-----

-------0-------0-
---------------0-
-------0-------0-
---------------0-

-----2-----------
-----0h2-----0---
-----0-------0---
-----2-------2---

-3-------2---0---
-----------------
-----------------
-----------------

-----------------
-3-------3-------
-3-------2-------
-0-------0-------

  Shadowed by the exit light      His legs take their ascending flight To

  , . . . , . . .   , . . . , . . .   , . . . , . . .   , . . . , . . .

---0-------0-----
---3-------2-----
---0-------2-----
-----------------

-----------------
-----------------
-----------------
-----------------

-------0-------0-
-------0-------0-
-------0-------0-
-----------------

-----2-------2---
-----0-------0---
-----0-------0---
-----------------

-3-------2-------
-----------------
-----------------
-----------------

-----------------
-3-------2-------
-0-------2-------
-----------------

  seek the breast of darkness  and be suckled by the night

  , . . . , . . .   , . . . , . . .   , . . . , . . .   , . . . , . . .

-0---------------
-----------------
-----------------
-----------------


-0---------------
-----------------
-----------------
-----------------


-0-------tap-----
-----------------
-----------------
-----------------


-2-------guitar--
-----------------
-----------------
-----------------


-2-------x-------
-x-------x-------
-x-------x-------
-x-------x-------


-0---------------
-----------------
-----------------
-----------------

 


/
How To Set Up Higher Praise As Your Home Page
Copyright 1999, Higher Praise HigherPraise,Inc. All rights reserved. Terms of Use

Enjoy A Life Changing Experience

 
 
 
HigherPraise, Higher Praise, HigherPraise, Higher Praise, HigherPraise

Members..Sign Up. LogIn

 
 

Higher Praise Other Sites
 
 

HigherPraise.org/
Praise And Worship
www.higherpraise.org

HigherPraise.net
Christian Resources
www.higherpraise.net

HigherPraiseTube.com
Videos And Audios
www.higherpraisetube.com.


ChristianLyrics.org

Lyrics And Chrords
www.christianlyrics.org

ChristianChordsLyrics

Lyrics And Chrords
www.christianchordslyrics.com

ChristianChordLyrics

Lyrics And Chrords
www.christianchordlyrics.com

WorshipLyrics.org
10.000 Illustrations
www.worshiplyrics.org

WorshipLyrics.net
10.000 Illustrations
www.worshiplyrics.net

PraiseLyrics.com
PowerPoint Lyrics

www.praiselyrics.com

PraiseLyrics.org
PowerPoint Lyrics

www.praiselyrics.org

1GodTube.com
Chistian Videos

www1godtube..com

OneGodTube.com
Chistian Videos

www.onegodtube..com

 

/
Copyright 1999 - 2019, Higher Praise™ HigherPraise™,Inc. All rights reserved. Terms of Use