Higher Praise - Guitar Chords, Lyrics  GuitarTabs -  Praise nad Worship Music And Christian Songs

Higher Praise - Guitar Tabs, Guitar Chords, Lyrics
   Lyrics, Chords And Tabs
   Popular Lyrics Chords Tab
   Power Point Lyrics
   Praise & Worship Music
   Christian Music Videos
   15900 Videos & Audios
   Midi Files
   Worship Questions
   Christmas Chords, Lyrics
   Lyrics, Chords Tabs Rated

Sermon Outlines And Audio Sermons
   9344 Sermon Outlines
   N.T. Sermon Outlines
   O.T. Sermon Outlines
   Special Guest Outlines
   10.000 Illustrations
   Sunday School Studies
   Bible College Studies
   Greatest Preachers
   Bible Research Tools
Audio Sermons
   2895 Audio Sermons
   85 Sermon Videos
   291 Special Guests Serm

   Complete Audio Bible
Higher Praise Sunday School Teaching
   Children's NT Studies
   Children's OT Studies

   98 Children's Midis
   Gospel For Kids Movie
   Children's JESUS Film
Higher Praise Christian Video Library ,Videos
   Christian Television
   TBN TV Live
   15,000 Videos - HP Tube
   712 Youth Music Vids
  Christian Video Library
   Praise Videos #1 & #2
   85 Sermon Videos
   Prophecy Film -Videos
   JESUS Film -Video
   Childrens JESUS Film
   Gospel For Kids Movie
   Passion Of The Christ
   Noah, Sodom, Sinai, Ark
   Tsunami Videos Photos
News And Information
   Testimonies
   Submit Lyrics, Tabs, Serm
   10.000 Illustrations
   Bible College Course
   Clipart & Web Graphics
   Greatest Preachers
   Complete Talking Bible
   Christian Chat Rooms
   Links Church Resource
   HP Statement Of Faith
Download Clipart
   Audio Sermons
   Clipart & Web Graphics
   Church Administration
   Bible Study Software
   Screen Savers Software
   Verse A Day Software
   Educational Games
   Trade Center Photos

   Soft. Search Engine
Higher Praise News
   Current News
    Archived News
   Submit News
   Newsletter   Higher Praise Interact Prayer
   Prayer For All Needs
   
Submit Lyrics, Sermons
   
Contact Higher Praise
   
Advertising 
   Privacy Policy
//
He Died For You,  Click For Answer! This Is Who Jesus Is Video

'
 
0-9 A B C D E F G H I J K L M N O P Q R S T U V W X Y Z
.

//
Click For Printable...Version Of This File
 

Cuts And Bruises


by Remnant




Song Title: Cuts And Bruises
Artist: Remnant
Album: Mask Of Happiness

DROPPED-D TUNING: D-A-D-G-B-E

SIGNS:
h: Hammer-on
p: Pick-up
(#): Ghost note
X: Mute String
/: Slide Down
\: Slide Up
P.M.: Palm Mute; ..: Carrying on palm mute
(H): Hold
v~: Vibrato
~: Hit once and fade out
H.: Harmonic

CHORDS:
Csus2: X35533			F(9): 335533
Am: 7-7-10-X-X-X		C5: X355XX
F5(9): 335XXX			A5(9): 779XXX
A5: 777XXX			C/B: 9-10-X-X-X-X
C5: 10-10-10-12-X-X		F5: 333XXX

Intro: [Clean gtr. w/rotary speaker)  
  Csus2     F(9)       Am                              F(9)

--------------------
-------------------------------------------

-------3-------3----
--------------------------------------3----

----5--5---------5--
----------------------------------5--------

---5-5-5----(5)---5-
-----9h10-(10)-p9---9---10p9-9---5--5------

-3------------------
------------------8---------8--------------

-----------3--------
-/7-----------------------------3----------
 
                                                  (Figure 1)

Verse 1: (Figure 1)
Csus2                     F(9)                         
    You held your head up higher, 
                     Am                  F(9)
but you said its got nothing, nothing to do with you
Csus2                    F(9)      Am                 F(9)
    As you draw from the fire, the coldness starts to come to you
                 [Break:] Csus2		F(9)		Am		F(9)
So you lay down with cuts and bruises

Verse 2: (Figure 1)
Csus2                          F(9)
    You left your time for the buyer, 
    Am                          F(9)
you sold it all so you couldn't use it anymore
Csus2                 F(9)                   Am             F(9)
    Your strength had expired, the label was marked so long before
          (Figure 2)
So you lay down with cuts and (bruises)
  
  [Heavy distortion] 
  F5(9)             

------------------


------------------


------------------


-X-5-5---------5/-


-X-3-3---3-3---3/-


-X-3-3---3-3---3/-
 (Figure 2)


Chorus: [heavy distortion]
             You were hurt so much before
  C5       P.M..      F5(9)  P.M..

----------------------------------------

----------------------------------------

-5---5-5-5-------5----------------------

-5---5-5-5---5-5-5---5---5-5-------5----

-3---3-3-3---3-3-3---3---3-3---3-3-3----

---------------------3---3-3---3-3-3----


 You can hold on anymore, lying down with cuts and bruises
  A5(9) P.M..                 F5(9)  P.M..

----------------------------------------------------------

----------------------------------------------------------

----------------------------------------------------------

-9---9---------9---9-9-9------5---5---------5---5-5---5---

-7---7---7-7---7---7-7-7------3-3-3---3-3---3---3-3---3---

-7---7---7-7---7---7-7-7------3-3-----3-3---3---3-3---3---


             You were hurt so much before
  C5       P.M..      F5(9)  P.M..

----------------------------------------

----------------------------------------

-5---5-5-5-------5----------------------

-5---5-5-5---5-5-5---5---5-5-------5----

-3---3-3-3---3-3-3---3---3-3---3-3-3----

---------------------3---3-3---3-3-3----


 You can hold on anymore, lying down with cuts and bruises
  A5(9) P.M..                 F5(9)  

----------------------------------------------------------

----------------------------------------------------------

----------------------------------------------------------

-9---9---------9---9-9-9------5---5---5-5---5---5-5---5---

-7---7---7-7---7---7-7-7------3-3-3---3-3---3---3-3---3---

-7---7---7-7---7---7-7-7------3-3-----3-3---3---3-3---3---


Bridge:
            Out of you body, you can still feel the 
  A5         C5/B      C5          F5

--------------------------------------------------

--------------------------------------------------

--------------------------------------------------

-7---7-7--------------10-10-10---10\3-3(H)--------

-7---7-7---7/10-10-10-10-10-10---10\3-3(H)--------

-7---7-7---7/9--9--9--10-10-10---10\3-3(H)--------


  pain,    your sin starts to grab you over again
  A5         C5/B      C5          F5

--------------------------------------------------

--------------------------------------------------

--------------------------------------------------

-7---7-7--------------10-10-10---10\3-3(H)--------

-7---7-7---7/10-10-10-10-10-10---10\3-3(H)--------

-7---7-7---7/9--9--9--10-10-10---10\3-3(H)--------


                 lying down,         with cuts and bruises
  A5         C5/B      C5                 F5

---------------------------------------------------------------

---------------------------------------------------------------

-------------------------12-12-12-12/14------------------------

-7---7-7--------------10-10-10-10--------3---3---3-5---5-------

-7---7-7---7/10-10-10-10-10-10-10--------3---3---3-3---3---12\-

-7---7-7---7/9--9--9--10-10-10-10--------3---3---3-3---3-------


Guitar Solo: [Heavy distortion w/delay]
  C5                          F5(9)

---------------------------------------------------

---------------------------------------------------

-4b-(4)----------------------4b-(4)----------------

------5---3-5b--------------------5---3-5b---------

---------------3h5p3-----------------------3-5-3v~-

---------------------5-3h5-------------------------


  A5(9)          F5(9)

-----------------------------------------------

-----------------------------------------------

-4-5---5/7-5---/14-12-10---9h10p10-------------

-----------------------------------10h12p10v~--

-----------------------------------------------

-----------------------------------------------


  C5                                    F5(9)

-------------15-15-------15------------------------15-15-------15---

-12-13-12h13-------12-13----13-12h13---12-13-12h13-------12-12------

--------------------------------------------------------------------

--------------------------------------------------------------------

--------------------------------------------------------------------

--------------------------------------------------------------------


  Am                       F5(9)

-15-15-15---13-13-13-12---10-10-10-12-12-12-13---13-12h13-15\-

-13-13-13---13-13-13-14---13-13-13-13-13-13-13----------------

--------------------------------------------------------------

--------------------------------------------------------------

--------------------------------------------------------------

--------------------------------------------------------------


Chorus:
You were hurt so much before
  C5       P.M..      F5(9)  P.M..

----------------------------------------

----------------------------------------

-5---5-5-5-------5----------------------

-5---5-5-5---5-5-5---5---5-5-------5----

-3---3-3-3---3-3-3---3---3-3---3-3-3----

---------------------3---3-3---3-3-3----


  You can hold on anymore, lying down with cuts and bruises
  A5(9) P.M..                 F5(9)  P.M..

----------------------------------------------------------

----------------------------------------------------------

----------------------------------------------------------

-9---9---------9---9-9-9------5---5---------5---5-5---5---

-7---7---7-7---7---7-7-7------3-3-3---3-3---3---3-3---3---

-7---7---7-7---7---7-7-7------3-3-----3-3---3---3-3---3---


     Jesus opened the door, but you were 
  C5                  F5(9)

----------------------------------------

----------------------------------------

-5---5-5-5---5-5-5----------------------

-5---5-5-5---5-5-5---5---5-5---5-5-5----

-3---3-3-3---3-3-3---3---3-3---3-3-3----

---------------------3---3-3---3-3-3----


 gone before               He could heal all of your pain
  A5(9)                        F5(9)     P.M..

----------------------------------------------------------

----------------------------------------------------------

----------------------------------------------------------

-9---9---7-7---9---9-9-9------5---5---5-5-------5-5---5~--

-7---7---7-7---7---7-7-7------3-3-3---3-3-3-3---3-3---3~--

-7---7---7-7---7---7-7-7------3-3-----3-3-3-3---3-3---3~--
 (fade out)

Outro: (Figure 1) [Clean gtr. w/ rotary speaker]
Csus2                F(9)
    Jesus Christ has spoken to you,
                     Am                  F(9) 
but you said its got nothing, nothing to do with you
Csus2                F(9)
    Jesus Christ has given you truth
                Am               F(9)      /        /~
But you gave no ear again, lying down with cuts and bruises
 


/
How To Set Up Higher Praise As Your Home Page
Copyright 1999, Higher Praise HigherPraise,Inc. All rights reserved. Terms of Use

Enjoy A Life Changing Experience

 
 
 
HigherPraise, Higher Praise, HigherPraise, Higher Praise, HigherPraise

Members..Sign Up. LogIn

 
 

Higher Praise Other Sites
 
 

HigherPraise.org/
Praise And Worship
www.higherpraise.org

HigherPraise.net
Christian Resources
www.higherpraise.net

HigherPraiseTube.com
Videos And Audios
www.higherpraisetube.com.


ChristianLyrics.org

Lyrics And Chrords
www.christianlyrics.org

ChristianChordsLyrics

Lyrics And Chrords
www.christianchordslyrics.com

ChristianChordLyrics

Lyrics And Chrords
www.christianchordlyrics.com

WorshipLyrics.org
10.000 Illustrations
www.worshiplyrics.org

WorshipLyrics.net
10.000 Illustrations
www.worshiplyrics.net

PraiseLyrics.com
PowerPoint Lyrics

www.praiselyrics.com

PraiseLyrics.org
PowerPoint Lyrics

www.praiselyrics.org

1GodTube.com
Chistian Videos

www1godtube..com

OneGodTube.com
Chistian Videos

www.onegodtube..com

 

/
Copyright 1999 - 2019, Higher Praise™ HigherPraise™,Inc. All rights reserved. Terms of Use