Higher Praise - Guitar Chords, Lyrics  GuitarTabs -  Praise nad Worship Music And Christian Songs

Higher Praise - Guitar Tabs, Guitar Chords, Lyrics
   Lyrics, Chords And Tabs
   Popular Lyrics Chords Tab
   Power Point Lyrics
   Praise & Worship Music
   Christian Music Videos
   15900 Videos & Audios
   Midi Files
   Worship Questions
   Christmas Chords, Lyrics
   Lyrics, Chords Tabs Rated

Sermon Outlines And Audio Sermons
   9344 Sermon Outlines
   N.T. Sermon Outlines
   O.T. Sermon Outlines
   Special Guest Outlines
   10.000 Illustrations
   Sunday School Studies
   Bible College Studies
   Greatest Preachers
   Bible Research Tools
Audio Sermons
   2895 Audio Sermons
   85 Sermon Videos
   291 Special Guests Serm

   Complete Audio Bible
Higher Praise Sunday School Teaching
   Children's NT Studies
   Children's OT Studies

   98 Children's Midis
   Gospel For Kids Movie
   Children's JESUS Film
Higher Praise Christian Video Library ,Videos
   Christian Television
   TBN TV Live
   15,000 Videos - HP Tube
   712 Youth Music Vids
  Christian Video Library
   Praise Videos #1 & #2
   85 Sermon Videos
   Prophecy Film -Videos
   JESUS Film -Video
   Childrens JESUS Film
   Gospel For Kids Movie
   Passion Of The Christ
   Noah, Sodom, Sinai, Ark
   Tsunami Videos Photos
News And Information
   Testimonies
   Submit Lyrics, Tabs, Serm
   10.000 Illustrations
   Bible College Course
   Clipart & Web Graphics
   Greatest Preachers
   Complete Talking Bible
   Christian Chat Rooms
   Links Church Resource
   HP Statement Of Faith
Download Clipart
   Audio Sermons
   Clipart & Web Graphics
   Church Administration
   Bible Study Software
   Screen Savers Software
   Verse A Day Software
   Educational Games
   Trade Center Photos

   Soft. Search Engine
Higher Praise News
   Current News
    Archived News
   Submit News
   Newsletter   Higher Praise Interact Prayer
   Prayer For All Needs
   
Submit Lyrics, Sermons
   
Contact Higher Praise
   
Advertising 
   Privacy Policy
//
He Died For You,  Click For Answer! This Is Who Jesus Is Video

'
 
0-9 A B C D E F G H I J K L M N O P Q R S T U V W X Y Z
.

//
Click For Printable...Version Of This File
 

Blue Roses


by Relient K




Song: Who I Am Hates Who I've Been
Artist: Relient K
Album: MMHMM
Tabber: aceguitarock
Tuning: Half step down (Eb, Ab, Db, Gb, Bb, Eb)

Key:
* = Palm Mute
x = Dead Note
/ = Slide

I split some parts of the song into two or three guitars.
Also, I posted the time to make it easier to follow along.

Rate and Comment Please

Intro: (0:00)
Gtr. 1:

-----------------------------------------------------------------

-5-0-9-0-7-0-5-0-4-0-5-0-7-0-4-0-4-0-5-0-4-0-5-0-7-0-9-0-4-0-5-0-

-----------------------------------------------------------------

-----------------------------------------------------------------
 x2

-----------------------------------------------------------------

-----------------------------------------------------------------


Gtr. 2:

-------------------------------------

-------------------------------------

-22222222-44444444-66666666----------

-22222222-44444444-66666666-22222222-
 x2

-00000000-22222222-44444444-22222222-

----------------------------00000000-


(0:11)
Gtr. 1:

-0-0-0--------

-5-5-4--------

--------------

--------------

--------------

--------------


Gtr. 2:

--------------

--------------

-2-2-4--------

-2-2-4--------

-0-0-2--------

--------------


Verse 1: (0:26)
(Clean)

-0--------0--------0----------------

-0--------0--------0----------------

-2--------4--------6----------------

-2--------4--------6----------------
 x2

-0--------2--------4----------------

------------------------------------


(Dist.) (0:37)

----------------------------------

----------------------------------

---------------------------4------

-2222222222222222-44444444-4------

-0000000000000000-22222222-2------

----------------------------------

PM**************** ********       

Pre-Chorus: (0:43)

------------------------------------------------------------------------

------------------------------------------------------------------------

-----9-9------888-8-----------------------------9-9------888-8----------

-2-2/9-9-x9-9-999-9-6-x-77-x11-111111-9-9---2-2/9-9-x9-9-999-9----------

-2-2/7-7-x9-9-666-6-7-x-77-x11-111111-9-9---2-2/7-7-x9-9-666-6----7----7

-0-0-----x7-7-------4-x-55-x-9--9-9-9-7-7---0-0-----x7-7-------44---55--

PM                                                              **   **

(0:53)

----------

----------

----------

-99999999-

-99999999-

-77777777-

PM********

Chorus 1: (0:55)

-0000000000000000000000000000-------0000000000000000000000000000-------

-0000000000000000000000000000-------0000000000000000000000000000-------

-xxxxxxxxxxxxxxxxxxxxxxxxxxxx-444-6-6666666666666666666666666666-444---

-2222222222222222222222222222-xxx-x-6666666666666666666666666666-xxx-2-

-2222222222222222222222222222-222-4-4444444444444444444444444444-222-2-

-0000000000000000000000000000----------------------------------------0-


-0000000000000000000000000000-------0000000000000000-------------------

-0000000000000000000000000000-------0000000000000000-------------------

-xxxxxxxxxxxxxxxxxxxxxxxxxxxx-444-6-6666666666666666-22222222-44444444-

-2222222222222222222222222222-xxx-x-6666666666666666-22222222-44444444-

-2222222222222222222222222222-222-4-4444444444444444-00000000-22222222-

-0000000000000000000000000000------------------------------------------


Interlude: (1:17)
Gtr. 1:

-----------------------------------------------------------------

-5-0-9-0-7-0-5-0-4-0-5-0-7-0-4-0-4-0-5-0-4-0-5-0-7-0-9-0-4-0-5-0-

-----------------------------------------------------------------

-----------------------------------------------------------------
 x2

-----------------------------------------------------------------

-----------------------------------------------------------------


Gtr. 2:

-------------------------------------

-------------------------------------

-22222222-44444444-66666666----------

-22222222-44444444-66666666-22222222-
 x2

-00000000-22222222-44444444-22222222-

----------------------------00000000-


Gtr. 3: (On Gtr. 1's second time)

--------------------------------------------------------------------

-9-0-12-0-10-0-9-0-7-0-9-0-10-0-7-0-7-0-9-0-7-0-9-0-10-0-12-0-7-0-9-

--------------------------------------------------------------------

--------------------------------------------------------------------

--------------------------------------------------------------------

--------------------------------------------------------------------


Verse 2: (1:29)

-----------------------------------------------------------------------

-----------------------------------------------------------------------

-----------------------------------------------------------------------

-2------------------2222222222222222-6666666666666666-4444444444444444-
 x2

-2-2222222222222222-0000000000000000-4444444444444444-2222222222222222-

-0-0000000000000000----------------------------------------------------

PM  **************** **************** **************** ****************

(1:52)

---------------------------------

---------------------------------

-2-2-222-4-4-444-8-8-888-8-8-888-

-2-2-222-4-4-444-6-6-666-6-6-666-
 x2

-0-0-000-2-2-222-4-4-444-4-4-444-

---------------------------------


(2:03)

----------------------------------

----------------------------------

---------------------------4------

-2222222222222222-44444444-4------

-0000000000000000-22222222-2------

----------------------------------

PM**************** ********

Pre-Chorus 2: (2:09)

-0-----------------

-0-----------------

-x-----------------

-2-----------------

-2-----------------

-0-----------------
     

(2:22)

------------------------------------------------------------------------

------------------------------------------------------------------------

-----9-9------888-8-----------------------------9-9------888-8----------

-2-2/9-9-x9-9-999-9-6-x-77-x11-111111-9-9---2-2/9-9-x9-9-999-9----------

-2-2/7-7-x9-9-666-6-7-x-77-x11-111111-9-9---2-2/7-7-x9-9-666-6----7----7

-0-0-----x7-7-------4-x-55-x-9--9-9-9-7-7---0-0-----x7-7-------44---55--

PM                                                              **   **

(2:32)

----------

----------

----------

-99999999-

-99999999-

-77777777-

PM********

Chorus 2: (2:34)

-0000000000000000000000000000-------0000000000000000000000000000-------

-0000000000000000000000000000-------0000000000000000000000000000-------

-xxxxxxxxxxxxxxxxxxxxxxxxxxxx-444-6-6666666666666666666666666666-444---

-2222222222222222222222222222-xxx-x-6666666666666666666666666666-xxx-2-

-2222222222222222222222222222-222-4-4444444444444444444444444444-222-2-

-0000000000000000000000000000----------------------------------------0-


-0000000000000000000000000000-------0000000000000000-------------------

-0000000000000000000000000000-------0000000000000000-------------------

-xxxxxxxxxxxxxxxxxxxxxxxxxxxx-444-6-6666666666666666-22222222-44444444-

-2222222222222222222222222222-xxx-x-6666666666666666-22222222-44444444-

-2222222222222222222222222222-222-4-4444444444444444-00000000-22222222-

-0000000000000000000000000000------------------------------------------


Bridge: (2:57)

-------------------------------------------------------------------

-------------------------------------------------------------------

----------------------------------6-6-666-2-2-222---------44444444-

----------------------------22222-6-6-666-2-2-222-2-2-222-44444444-

-77777777-77777777-22222222-33333-4-4-444-0-0-000-2-2-222-22222222-

-44444444-55555555-00000000-----------------------0-0-000----------

PM******** ******** ******** ****

Chorus 3: (3:08)

-0000000000000000000000000000-------0000000000000000000000000000-------

-0000000000000000000000000000-------0000000000000000000000000000-------

-xxxxxxxxxxxxxxxxxxxxxxxxxxxx-444-6-6666666666666666666666666666-444---

-2222222222222222222222222222-xxx-x-6666666666666666666666666666-xxx-2-

-2222222222222222222222222222-222-4-4444444444444444444444444444-222-2-

-0000000000000000000000000000----------------------------------------0-


-0000000000000000000000000000-------0000000000000000-------------------

-0000000000000000000000000000-------0000000000000000-------------------

-xxxxxxxxxxxxxxxxxxxxxxxxxxxx-444-6-6666666666666666-22222222-44444444-

-2222222222222222222222222222-xxx-x-6666666666666666-22222222-44444444-

-2222222222222222222222222222-222-4-4444444444444444-00000000-22222222-

-0000000000000000000000000000------------------------------------------


Outro: (3:31)

Gtr. 1:

-----------------------------------------------------------------

-5-0-9-0-7-0-5-0-4-0-5-0-7-0-4-0-4-0-5-0-4-0-5-0-7-0-9-0-4-0-5-0-

-----------------------------------------------------------------

-----------------------------------------------------------------
 x2

-----------------------------------------------------------------

-----------------------------------------------------------------

PM* * * * * * * * * * * * * * *

Gtr. 2:

------------------------------------------------------------------

------------------------------------------------------------------

------------66666666----------22222222-44444444-66666666----------

------------66666666-22222222-22222222-44444444-66666666-22222222-

-22------22-44444444-22222222-00000000-22222222-44444444-22222222-

-00------00----------00000000----------------------------00000000-

PM**      **

Gtr. 3: (Along with Gtr. 1)

--------------------------------------------------------------------

-9-0-12-0-10-0-9-0-7-0-9-0-10-0-7-0-7-0-9-0-7-0-9-0-10-0-12-0-7-0-9-

--------------------------------------------------------------------

--------------------------------------------------------------------
 x2

--------------------------------------------------------------------

--------------------------------------------------------------------

PM* * *  * *  * * * * * * * *  * * *

Gtr. 1:

-0-0-0--------

-5-5-4--------

--------------

--------------

--------------

--------------


Gtr. 2:

--------------

--------------

-2-2-4--------

-2-2-4--------

-0-0-2--------

--------------


Gtr. 3:

--------------

-9-9-7--------

--------------

--------------

--------------

--------------


Lyrics:
I watched the proverbial sunrise
Coming up over the Pacific and
You might think I'm losing my mind,
But I will shy away from the specifics...

'cause I don't want you to know where I am
'cause then you'll see my heart
In the saddest state it's ever been.

This is no place to try and live my life.

[Pre-Chorus]
Stop right there. That's exactly where I lost it.
See that line. Well I never should have crossed it.
Stop right there. Well I never should have said
That it's the very moment that
I wish that I could take back.

[Chorus]
I'm sorry for the person I became.
I'm sorry that it took so long for me to change.
I'm ready to be sure I never become that way again
'cause who I am hates who I've been.
Who I am hates who I've been.

I talk to absolutely no one.
Couldn't keep to myself enough.
And the things bottled inside have finally begun
To create so much pressure that I'll soon blow up.

I heard the reverberating footsteps
Synching up to the beating of my heart,
And I was positive that unless I got myself together,
I would watch me fall apart.

And I can't let that happen again
'cause then you'll see my heart
In the saddest state it's ever been.

This is no place to try and live my life.

[Pre-Chorus x2]
[Chorus]

Who I am hates who I've been
And who I am will take the second chance you gave me.
Who I am hates who I've been
'cause who I've been only ever made me...

So sorry for the person I became.
So sorry that it took so long for me to change.
I'm ready to be sure I never become that way again
'cause who I am hates who I've been.
Who I am hates who I've been.

 


/
How To Set Up Higher Praise As Your Home Page
Copyright 1999, Higher Praise HigherPraise,Inc. All rights reserved. Terms of Use

Enjoy A Life Changing Experience

 
 
 
HigherPraise, Higher Praise, HigherPraise, Higher Praise, HigherPraise

Members..Sign Up. LogIn

 
 

Higher Praise Other Sites
 
 

HigherPraise.org/
Praise And Worship
www.higherpraise.org

HigherPraise.net
Christian Resources
www.higherpraise.net

HigherPraiseTube.com
Videos And Audios
www.higherpraisetube.com.


ChristianLyrics.org

Lyrics And Chrords
www.christianlyrics.org

ChristianChordsLyrics

Lyrics And Chrords
www.christianchordslyrics.com

ChristianChordLyrics

Lyrics And Chrords
www.christianchordlyrics.com

WorshipLyrics.org
10.000 Illustrations
www.worshiplyrics.org

WorshipLyrics.net
10.000 Illustrations
www.worshiplyrics.net

PraiseLyrics.com
PowerPoint Lyrics

www.praiselyrics.com

PraiseLyrics.org
PowerPoint Lyrics

www.praiselyrics.org

1GodTube.com
Chistian Videos

www1godtube..com

OneGodTube.com
Chistian Videos

www.onegodtube..com

 

/
Copyright 1999 - 2019, Higher Praise™ HigherPraise™,Inc. All rights reserved. Terms of Use