Higher Praise - Guitar Chords, Lyrics  GuitarTabs -  Praise nad Worship Music And Christian Songs

Higher Praise - Guitar Tabs, Guitar Chords, Lyrics
   Lyrics, Chords And Tabs
   Popular Lyrics Chords Tab
   Power Point Lyrics
   Praise & Worship Music
   Christian Music Videos
   15900 Videos & Audios
   Midi Files
   Worship Questions
   Christmas Chords, Lyrics
   Lyrics, Chords Tabs Rated

Sermon Outlines And Audio Sermons
   9344 Sermon Outlines
   N.T. Sermon Outlines
   O.T. Sermon Outlines
   Special Guest Outlines
   10.000 Illustrations
   Sunday School Studies
   Bible College Studies
   Greatest Preachers
   Bible Research Tools
Audio Sermons
   2895 Audio Sermons
   85 Sermon Videos
   291 Special Guests Serm

   Complete Audio Bible
Higher Praise Sunday School Teaching
   Children's NT Studies
   Children's OT Studies

   98 Children's Midis
   Gospel For Kids Movie
   Children's JESUS Film
Higher Praise Christian Video Library ,Videos
   Christian Television
   TBN TV Live
   15,000 Videos - HP Tube
   712 Youth Music Vids
  Christian Video Library
   Praise Videos #1 & #2
   85 Sermon Videos
   Prophecy Film -Videos
   JESUS Film -Video
   Childrens JESUS Film
   Gospel For Kids Movie
   Passion Of The Christ
   Noah, Sodom, Sinai, Ark
   Tsunami Videos Photos
News And Information
   Testimonies
   Submit Lyrics, Tabs, Serm
   10.000 Illustrations
   Bible College Course
   Clipart & Web Graphics
   Greatest Preachers
   Complete Talking Bible
   Christian Chat Rooms
   Links Church Resource
   HP Statement Of Faith
Download Clipart
   Audio Sermons
   Clipart & Web Graphics
   Church Administration
   Bible Study Software
   Screen Savers Software
   Verse A Day Software
   Educational Games
   Trade Center Photos

   Soft. Search Engine
Higher Praise News
   Current News
    Archived News
   Submit News
   Newsletter   Higher Praise Interact Prayer
   Prayer For All Needs
   
Submit Lyrics, Sermons
   
Contact Higher Praise
   
Advertising 
   Privacy Policy
//
He Died For You,  Click For Answer! This Is Who Jesus Is Video

'
 
0-9 A B C D E F G H I J K L M N O P Q R S T U V W X Y Z
.

//
Click For Printable...Version Of This File
 

Drawing Black Lines Album


by Project 86




=============================================================================
                                  INTRODUCTION
=============================================================================
Here it is. Everyones favourite Project 86 album. 
Why? Not sure. Personally, it is not my favourite,
but it is still a great CD. So, this tab contains
all songs for the "Drawing Black Lines" CD. Yes,
even the mess that is known as "Twenty-Three".

Read each section below to avoid confusion please.

And any questions or comments, e-mail me at:

but if you make a comment, check back later, 
because I usually reply in the comments section
to people.

=============================================================================
                                    NOTES
=============================================================================

I'll be putting "NOTES" throughout the tab. Watch for
these,cause they include how to play certain parts, how
many times to hit strings, or other important information.

=============================================================================
                              CLEAN/DISTORTION
=============================================================================

As for different clean and distortion guitars. I will
only be listing it when a song has both a clean AND a
distortion guitar. And I will only list it when you switch
from one to the other. In other words it will only be
listed when you need to switch from a clean guitar to
a distortion guitar, or vice versa, so watch for it.

=============================================================================
                                 SHORTCUT
=============================================================================

Also, an easy way to find a certain song within this tab
is to hold CTRL and push "F",then type the name of the song.
Nice shortcut for this.

=============================================================================
                                  TUNINGS
=============================================================================

As for tunings, this entire CD is in Drop D tuning.

However if any songs say the top string in an E, ignore it,
because I used a pre-made template given by Ultimate-guitar,
so just ignore it -- it is really in Drop D!

=============================================================================
                                  SYMBOLS
=============================================================================

 /  slide up
 \  slide down
 h  hammer-on
 p  pull-off
 ~  Ring out
 *  harmonic
 x  Mute note
 b  Bend
 v  Vibrato

=============================================================================
                                TRACKLISTING
=============================================================================

1. Stein's Theme
2. One Armed Man
3. Me Against Me
4. PS
5. Set Me Up
6. Chimes
7. A Toast To My Former Self
8. Sad Machines
9. Star
10. Chapter 2
11. Open Hand
12. Twenty-Three

=============================================================================
                                 Copyright
=============================================================================

If you're going to post this, or any of my other
Project 86 album tabs, please give 98% credit. You 
can take %2 credit under two conditions.

1. You make NO changes to the tab. No changes to the songs,
   or removal of my email and name.

2. You make sue to make a heading at the top of
   the tab stating that you have abided by these
   two rules and are taking you 2% credit.

OK? So I think that's fair. You get 2% credit for posting
elsewhere, although I really don't want you to post this
tab anywhere else. I'd rather you didn't but if you
absolutely must, then follow my rules please. OK? :) Thanks.


-----------------------------------------------------------------------------
                                Stein's Theme
-----------------------------------------------------------------------------

Intro 1:
e
--------------------------------------------

B
--------------------------------------------

G
--------------------------------------------

D
-0--0--0--0--0--0-0-----0--0--0--0--0--0-0--
X12
A
-6--6--6--6--6--6-6-----6--6--6--6--6--6-6--

D
-0--0--0--0--0--0-0-----0--0--0--0--0--0-0--


Verse 1:
e
-----------------------------------------------

B
-----------------------------------------------

G
-----------------------------------------------

D
-00-000-000-000-7-0-0-6-0-0-1-0-0-2-0-0-3-0-2--

A
-00-000-000-000--------------------------------

D
-00-000-000-000--------------------------------


e
-----------------------------------------------

B
-----------------------------------------------

G
-----------------------------------------------

D
-00-000-000-000-7-0-0-6-0-0-1-0-0-2-0-0-3-0-2--

A
-00-000-000-000--------------------------------

D
-00-000-000-000--------------------------------


e
-----------------------------------------------

B
-----------------------------------------------

G
-----------------------------------------------

D
-00-000-000-000-7-0-0-6-0-0-1-0-0-2-0-0-3-0-2--

A
-00-000-000-000--------------------------------

D
-00-000-000-000--------------------------------


e
-----------------------------------------------

B
-----------------------------------------------

G
-----------------------------------------------

D
-00-000-000-000-7-0-0-6-0-0-1-0-0-2-0-0-3~~~---

A
-00-000-000-000--------------------------------

D
-00-000-000-000--------------------------------


Chorus 1:
e
-----------------------------------------------

B
-----------------------------------------------

G
----------------7--------------------7h8p7-----

D
-6--5--0--xx-x--------6--5--0--xx-x-------6----

A
-6--5--0--xx-x--5-----6--5--0--xx-x------------

D
-6--5--0--xx-x--------6--5--0--xx-x------------


e
-----------------------------------------------

B
-----------------------------------------------

G
----------------7--------------------7h8p7-----

D
-6--5--0--xx-x--------6--5--0--xx-x-------6----

A
-6--5--0--xx-x--5-----6--5--0--xx-x------------

D
-6--5--0--xx-x--------6--5--0--xx-x------------


Verse 2:
e
-----------------------------------------------

B
-----------------------------------------------

G
-----------------------------------------------

D
-00-000-000-000-7-0-0-6-0-0-1-0-0-2-0-0-3-0-2--

A
-00-000-000-000--------------------------------

D
-00-000-000-000--------------------------------


e
-----------------------------------------------

B
-----------------------------------------------

G
-----------------------------------------------

D
-00-000-000-000-7-0-0-6-0-0-1-0-0-2-0-0-3-0-2--

A
-00-000-000-000--------------------------------

D
-00-000-000-000--------------------------------


e
-----------------------------------------------

B
-----------------------------------------------

G
-----------------------------------------------

D
-00-000-000-000-7-0-0-6-0-0-1-0-0-2-0-0-3-0-2--

A
-00-000-000-000--------------------------------

D
-00-000-000-000--------------------------------


e
-----------------------------------------------

B
-----------------------------------------------

G
-----------------------------------------------

D
-00-000-000-000-7-0-0-6-0-0-1-0-0-2-0-0-3~~~---

A
-00-000-000-000--------------------------------

D
-00-000-000-000--------------------------------


Chorus 2:
e
-----------------------------------------------

B
-----------------------------------------------

G
----------------7--------------------7h8p7-----

D
-6--5--0--xx-x--------6--5--0--xx-x-------6----

A
-6--5--0--xx-x--5-----6--5--0--xx-x------------

D
-6--5--0--xx-x--------6--5--0--xx-x------------


e
-----------------------------------------------

B
-----------------------------------------------

G
----------------7--------------------7h8p7-----

D
-6--5--0--xx-x--------6--5--0--xx-x-------6----

A
-6--5--0--xx-x--5-----6--5--0--xx-x------------

D
-6--5--0--xx-x--------6--5--0--xx-x------------


e
-----------------------------------------------

B
-----------------------------------------------

G
----------------7--------------------7h8p7-----

D
-6--5--0--xx-x--------6--5--0--xx-x-------6----

A
-6--5--0--xx-x--5-----6--5--0--xx-x------------

D
-6--5--0--xx-x--------6--5--0--xx-x------------


e
-----------------------------------------------

B
-----------------------------------------------

G
----------------7--------------------7h8p7-----

D
-6--5--0--xx-x--------6--5--0--xx-x-------6----

A
-6--5--0--xx-x--5-----6--5--0--xx-x------------

D
-6--5--0--xx-x--------6--5--0--xx-x------------


Bridge 1:
e
-----------------------------------------------

B
-----------------------------------------------

G
-----------------------------------------------

D
-00--00--06--00--00-------00--00--06--00--00---

A
-00--00--06--00--00-------00--00--06--00--00---

D
-00--00--06--00--00-------00--00--06--00--00---


e
-----------------------------------------------

B
-----------------------------------------------

G
-----------------------------------------------

D
-00--00--06--00--00-------00--00--06--00--00---

A
-00--00--06--00--00-------00--00--06--00--00---

D
-00--00--06--00--00-------00--00--06--00--00---


e
-----------------------------------------------

B
-----------------------------------------------

G
-----------------------------------------------

D
-00--00--06--00--00-------00--00--06--00--00---

A
-00--00--06--00--00-------00--00--06--00--00---

D
-00--00--06--00--00-------00--00--06--00--00---


e
-----------------------------------------------

B
-----------------------------------------------

G
-----------------------------------------------

D
-00--00--06--00--00--06---00--00--06--00--00---

A
-00--00--06--00--00--06---00--00--06--00--00---

D
-00--00--06--00--00--06---00--00--06--00--00---


Bridge 2:
e
----------------------------------------------------

B
----------------------------------------------------

G
-7p0------7p0---------------------7p0------7p0------

D
---------------------------00-----------------------

A
---------------------------00-----------------------

D
-----0~-------0~---0-0-6~--00-0-------0~-------6~---


e
----------------------------------------------------

B
----------------------------------------------------

G
--------7p0------7p0-------------7p0----------------

D
-00-----------------------00---------------xxxx-----

A
-00-----------------------00---------------xxxx-----

D
-00-0~-------0~-------6~--00-0~------0~----xxxx-----



e
----------------------------------------------------

B
----------------------------------------------------

G
--------7p0----------------------7p0------7p0------

D
-00------------------------00-----------------------

A
-00------------------------00-----------------------

D
-00-0~--------0~---0-0-6~--00-0~------0~-------6~---


e
----------------------------------------------------

B
----------------------------------------------------

G
--------7p0------7p0-------------7p0----------------

D
-00-----------------------00---------------xxxx-----

A
-00-----------------------00---------------xxxx-----

D
-00-0~-------0~-------6~--00-0~------0~----xxxx-----


Verse 3:
e
-----------------------------------------------

B
-----------------------------------------------

G
-----------------------------------------------

D
----------------7-0-0-6-0-0-1-0-0-2-0-0-3-0-2--

A
-----------------------------------------------

D
-----------------------------------------------


e
-----------------------------------------------

B
-----------------------------------------------

G
-----------------------------------------------

D
-00-000-000-000-7-0-0-6-0-0-1-0-0-2-0-0-3-0-2--

A
-00-000-000-000--------------------------------

D
-00-000-000-000--------------------------------


e
-----------------------------------------------

B
-----------------------------------------------

G
-----------------------------------------------

D
-00-000-000-000-7-0-0-6-0-0-1-0-0-2-0-0-3-0-2--

A
-00-000-000-000--------------------------------

D
-00-000-000-000--------------------------------


e
-----------------------------------------------

B
-----------------------------------------------

G
-----------------------------------------------

D
-00-000-000-000-7-0-0-6-0-0-1-0-0-2-0-0-3-0-2--

A
-00-000-000-000--------------------------------

D
-00-000-000-000--------------------------------


e
-----------------------------------------------

B
-----------------------------------------------

G
-----------------------------------------------

D
-00-000-000-000-7-0-0-6-0-0-1-0-0-2-0-0-3-0-2--

A
-00-000-000-000--------------------------------

D
-00-000-000-000--------------------------------


e
-----------------------------------------------

B
-----------------------------------------------

G
-----------------------------------------------

D
-------------------7-0-0-6-0-0-1-0-0--0-0-0-0--

A
--------------------------------------0-0-0-0--

D
--------------------------------------0-0-0-0--


Outro:

e
----------------------------------------------------

B
----------------------------------------------------

G
-7p0------7p0-----7p0------7p0----7p0------7p0------

D
----------------------------------------------------

A
----------------------------------------------------

D
-----0~-------0~-------6~------0-------0~-------6~--


e
----------------------------------------------------

B
----------------------------------------------------

G
-7p0------7p0-----7p0-------------7p0------7p0------

D
----------------------------00----------------------

A
----------------------------00----------------------

D
-----0~-------0~-------6~---00-0~------0~-------6~--


e
----------------------------------------------------

B
----------------------------------------------------

G
----------7p0-----7p0-------------7p0------7p0------

D
-00------------------------00-----------------------

A
-00------------------------00-----------------------

D
-00-0~---------0~------6~--00-0~------0~-------6~---


e
----------------------------------------------------

B
----------------------------------------------------

G
----------7p0-----7p0-------------7p0------7p0------

D
-00------------------------00-----------------------

A
-00------------------------00-----------------------

D
-00-0~---------0~------6~--00-0~------0~-------6~---


Outro Repeat:
e
----------------------------------------------------

B
----------------------------------------------------

G
----------7p0-----7p0-------------7p0------7p0------

D
-00------------------------00-----------------------

A
-00------------------------00-----------------------

D
-00-0~---------0~------6~--00-0~------0~-------6~---


e
----------------------------------------------------

B
----------------------------------------------------

G
----------7p0-----7p0-----7p0-----------------------

D
-00-------------------------------------------------

A
-00-------------------------------------------------

D
-00-0~---------0~------6~-----0~--------------------



-----------------------------------------------------------------------------
                                One Armed Man
-----------------------------------------------------------------------------

Intro:
NOTE: These are octaves being played. It doesn't
even sound right if you play powerchords, so
make sure you play exactly what is here.
e
-------------------------------------------------------------------

B
-------------------------------------------------------------------

G
-------------/10-10-10--12-12-12-----------------/10-10-10--5-5-5--

D
-0--7--0--7--------------------------0--7--0--7--------------------

A
-0--5--0--5--/8--8--8---10-10-10-----0--5--0--5--/8--8--8---3-3-3--

D
-0-----0-----------------------------0-----0-----------------------


e
-------------------------------------------------------------------

B
-------------------------------------------------------------------

G
-------------/10-10-10--12-12-12-----------------/10-10-10--5-5-5--

D
-0--7--0--7--------------------------0--7--0--7--------------------

A
-0--5--0--5--/8--8--8---10-10-10-----0--5--0--5--/8--8--8---3-3-3--

D
-0-----0-----------------------------0-----0-----------------------


Verse 1:
e
-------------------------------------------------------------------

B
-------------------------------------------------------------------

G
-------------/10-10-10--12-12-12-----------------/10-10-10--5-5-5--

D
-0--7--0--7--------------------------0--7--0--7--------------------

A
-0--5--0--5--/8--8--8---10-10-10-----0--5--0--5--/8--8--8---3-3-3--

D
-0-----0-----------------------------0-----0-----------------------


e
-------------------------------------------------------------------

B
-------------------------------------------------------------------

G
-------------/10-10-10--12-12-12-----------------/10-10-10--5-5-5--

D
-0--7--0--7--------------------------0--7--0--7--------------------

A
-0--5--0--5--/8--8--8---10-10-10-----0--5--0--5--/8--8--8---3-3-3--

D
-0-----0-----------------------------0-----0-----------------------


e
-------------------------------------------------------------------

B
-------------------------------------------------------------------

G
-------------/10-10-10--12-12-12-----------------/10-10-10--5-5-5--

D
-0--7--0--7--------------------------0--7--0--7--------------------

A
-0--5--0--5--/8--8--8---10-10-10-----0--5--0--5--/8--8--8---3-3-3--

D
-0-----0-----------------------------0-----0-----------------------


e
-------------------------------------------------------------------

B
-------------------------------------------------------------------

G
-------------/10-10-10--12-12-12-----------------/10-10-10--5-5-5--

D
-0--7--0--7--------------------------0--7--0--7--------------------

A
-0--5--0--5--/8--8--8---10-10-10-----0--5--0--5--/8--8--8---3-3-3--

D
-0-----0-----------------------------0-----0-----------------------


Chorus 1:
e
-----------------------------------------

B
-----------------------------------------

G
-----------------------------------------

D
-3-3-3-3---5-5-5-5---7---5/7---5/7--5/7--

A
-1-1-1-1---3-3-3-3---5---3/5---3/5--3/5--

D
-----------------------------------------


e
-----------------------------------------

B
-----------------------------------------

G
-----------------------------------------

D
-3-3-3-3---5-5-5-5---7---5/7---5/7--5/7--

A
-1-1-1-1---3-3-3-3---5---3/5---3/5--3/5--

D
-----------------------------------------


e
-----------------------------------------

B
-----------------------------------------

G
-----------------------------------------

D
-3-3-3-3---5-5-5-5---7---5/7---5/7--5/7--

A
-1-1-1-1---3-3-3-3---5---3/5---3/5--3/5--

D
-----------------------------------------


e
-----------------------------------------

B
-----------------------------------------

G
-----------------------------------------

D
-3-3-3-3---5-5-5-5---7---5/7---5/7--5/7~-

A
-1-1-1-1---3-3-3-3---5---3/5---3/5--3/5~-

D
-----------------------------------------


After-Chorus Music 1:
e
-------------------------------------------------------------------

B
-------------------------------------------------------------------

G
-------------/10-10-10--12-12-12-----------------/10-10-10--5-5-5--

D
-0--7--0--7--------------------------0--7--0--7--------------------

A
-0--5--0--5--/8--8--8---10-10-10-----0--5--0--5--/8--8--8---3-3-3--

D
-0-----0-----------------------------0-----0-----------------------


e
-------------------------------------------------------------------

B
-------------------------------------------------------------------

G
-------------/10-10-10--12-12-12-----------------/10-10-10--5-5-5--

D
-0--7--0--7--------------------------0--7--0--7--------------------

A
-0--5--0--5--/8--8--8---10-10-10-----0--5--0--5--/8--8--8---3-3-3--

D
-0-----0-----------------------------0-----0-----------------------


Verse 2:
e
-------------------------------------------------------------------

B
-------------------------------------------------------------------

G
-------------/10-10-10--12-12-12-----------------/10-10-10--5-5-5--

D
-0--7--0--7--------------------------0--7--0--7--------------------

A
-0--5--0--5--/8--8--8---10-10-10-----0--5--0--5--/8--8--8---3-3-3--

D
-0-----0-----------------------------0-----0-----------------------


e
-------------------------------------------------------------------

B
-------------------------------------------------------------------

G
-------------/10-10-10--12-12-12-----------------/10-10-10--5-5-5--

D
-0--7--0--7--------------------------0--7--0--7--------------------

A
-0--5--0--5--/8--8--8---10-10-10-----0--5--0--5--/8--8--8---3-3-3--

D
-0-----0-----------------------------0-----0-----------------------


Chorus 2:
e
-----------------------------------------

B
-----------------------------------------

G
-----------------------------------------

D
-3-3-3-3---5-5-5-5---7---5/7---5/7--5/7--

A
-1-1-1-1---3-3-3-3---5---3/5---3/5--3/5--

D
-----------------------------------------


e
-----------------------------------------

B
-----------------------------------------

G
-----------------------------------------

D
-3-3-3-3---5-5-5-5---7---5/7---5/7--5/7--

A
-1-1-1-1---3-3-3-3---5---3/5---3/5--3/5--

D
-----------------------------------------


e
-----------------------------------------

B
-----------------------------------------

G
-----------------------------------------

D
-3-3-3-3---5-5-5-5---7---5/7---5/7--5/7--

A
-1-1-1-1---3-3-3-3---5---3/5---3/5--3/5--

D
-----------------------------------------


e
-------------------------------------------

B
-------------------------------------------

G
-------------------------------------------

D
-3-3-3-3---5-5-5-5---7-7-7-7-7-7-7-7--0-0--

A
-1-1-1-1---3-3-3-3---7-7-7-7-7-7-7-7--0-0--

D
---------------------7-7-7-7-7-7-7-7--0-0--


Bridge 1:
e
--------------------------------------------------------------------------

B
--------------------------------------------------------------------------

G
-------------------------------5-7--------------------------------5-7-----

D
-0-0---0h3-0h3-----------0--3-------0-----0h3-0h3-----------0--3-------0--

A
-0-0---0h3-0h3--0-0-0-0--0--3--3-5--0-----0h3-0h3--0-0-0-0--0--3--3-5--0--

D
-0-0---0h3-0h3--0-0-0-0--0--3-------0-----0h3-0h3--0-0-0-0--0--3-------0--

pm                . . . .                            . . . .

e
--------------------------------------------------------------------------

B
--------------------------------------------------------------------------

G
-------------------------------5-7--------------------------------5-------

D
-------0h3-0h3-----------0--3-------0-----0h3-0h3-----------0--3----------

A
-------0h3-0h3--0-0-0-0--0--3--3-5--0-----0h3-0h3--0-0-0-0--0--3--3-------

D
-------0h3-0h3--0-0-0-0--0--3-------0-----0h3-0h3--0-0-0-0--0--3----------

pm                . . . .                            . . . .

Bridge 2:
e
--------------------------------------------------------------------------

B
--------------------------------------------------------------------------

G
-7-------5-----------------------5----------------------------------------

D
-7---3---5---5--5-3------0---3---5------5-5-5-5-5-5-5---------------------

A
-5---3---3---5--5-3------0---3---3------5-5-5-5-5-5-5---------------------

D
-----3-------5--5-3------0---3----------5-5-5-5-5-5-5---------------------

pm                                        . . . . . . .

Bridge 3:
e
-----------------------------------------------------------------------

B
-----------------------------------------------------------------------

G
-7-7---------------7-7---------------7-7---------------7-7-------------

D
------0-3-5-6-5---------0-3-5-6-5---------0-3-5-6-5---------0-3-5-6-5--

A
-5-5--0-3-5-6-5----5-5--0-3-5-6-5----5-5--0-3-5-6-5----5-5--0-3-5-6-5--

D
------0-3-5-6-5---------0-3-5-6-5---------0-3-5-6-5---------0-3-5-6-5--


e
-----------------------------------------------------------------------

B
-----------------------------------------------------------------------

G
-7-7---------------7-7---------------7-7---------------7-7-------------

D
------0-3-5-6-5---------0-3-5-6-5---------0-3-5-6-5---------0-3-5-6-5--

A
-5-5--0-3-5-6-5----5-5--0-3-5-6-5----5-5--0-3-5-6-5----5-5--0-3-5-6-5--

D
------0-3-5-6-5---------0-3-5-6-5---------0-3-5-6-5---------0-3-5-6-5--


e
-----------------------------------------------------------------------

B
-----------------------------------------------------------------------

G
-7-7---------------7-7---------------7-7---------------7-7-------------

D
------0-3-5-6-5---------0-3-5-6-5---------0-3-5-6-5---------0-3-5-6-5--

A
-5-5--0-3-5-6-5----5-5--0-3-5-6-5----5-5--0-3-5-6-5----5-5--0-3-5-6-5--

D
------0-3-5-6-5---------0-3-5-6-5---------0-3-5-6-5---------0-3-5-6-5--


e
-----------------------------------------------------------------------

B
-----------------------------------------------------------------------

G
-7-7---------------7-7---------------7-7---------------7-7-------------

D
------0-3-5-6-5---------0-3-5-6-5---------0-3-5-6-5---------0-3-5-6-5--

A
-5-5--0-3-5-6-5----5-5--0-3-5-6-5----5-5--0-3-5-6-5----5-5--0-3-5-6-5--

D
------0-3-5-6-5---------0-3-5-6-5---------0-3-5-6-5---------0-3-5-6-5--


Bridge 4:
e
--------------------------------------------------------------------------

B
--------------------------------------------------------------------------

G
-------------------------------5-7--------------------------------5-7-----

D
-0~~~--0h3-0h3-----------0--3-------0-----0h3-0h3-----------0--3-------0--

A
-0~~~--0h3-0h3--0-0-0-0--0--3--3-5--0-----0h3-0h3--0-0-0-0--0--3--3-5--0--

D
-0~~~--0h3-0h3--0-0-0-0--0--3-------0-----0h3-0h3--0-0-0-0--0--3-------0--

pm                . . . .                            . . . .

e
--------------------------------------------------------------------------

B
--------------------------------------------------------------------------

G
-------------------------------5-7--------------------------------5-------

D
-------0h3-0h3-----------0--3-------0-----0h3-0h3-----------0--3----------

A
-------0h3-0h3--0-0-0-0--0--3--3-5--0-----0h3-0h3--0-0-0-0--0--3--3-------

D
-------0h3-0h3--0-0-0-0--0--3-------0-----0h3-0h3--0-0-0-0--0--3----------

pm                . . . .                            . . . .

Bridge 5:
e
-----------------------------------------------------------------------

B
-----------------------------------------------------------------------

G
-7-7---------------7-7---------------7-7---------------7-7-------------

D
------0-3-5-6-5---------0-3-5-6-5---------0-3-5-6-5---------0-3-5-6-5--

A
-5-5--0-3-5-6-5----5-5--0-3-5-6-5----5-5--0-3-5-6-5----5-5--0-3-5-6-5--

D
------0-3-5-6-5---------0-3-5-6-5---------0-3-5-6-5---------0-3-5-6-5--


e
-----------------------------------------------------------------------

B
-----------------------------------------------------------------------

G
-7-7---------------7-7---------------7-7---------------7-7-------------

D
------0-3-5-6-5---------0-3-5-6-5---------0-3-5-6-5---------0-3-5-6-5--

A
-5-5--0-3-5-6-5----5-5--0-3-5-6-5----5-5--0-3-5-6-5----5-5--0-3-5-6-5--

D
------0-3-5-6-5---------0-3-5-6-5---------0-3-5-6-5---------0-3-5-6-5--


e
-----------------------------------------------------------------------

B
-----------------------------------------------------------------------

G
-7-7---------------7-7---------------7-7---------------7-7-------------

D
------0-3-5-6-5---------0-3-5-6-5---------0-3-5-6-5---------0-3-5-6-5--

A
-5-5--0-3-5-6-5----5-5--0-3-5-6-5----5-5--0-3-5-6-5----5-5--0-3-5-6-5--

D
------0-3-5-6-5---------0-3-5-6-5---------0-3-5-6-5---------0-3-5-6-5--


e
-----------------------------------------------------------------------

B
-----------------------------------------------------------------------

G
-7-7---------------7-7---------------7-7---------------7-7-------------

D
------0-3-5-6-5---------0-3-5-6-5---------0-3-5-6-5---------0-3-5-6-5--

A
-5-5--0-3-5-6-5----5-5--0-3-5-6-5----5-5--0-3-5-6-5----5-5--0-3-5-6-5--

D
------0-3-5-6-5---------0-3-5-6-5---------0-3-5-6-5---------0-3-5-6-5--


Chorus 3:
e
-----------------------------------------

B
-----------------------------------------

G
-----------------------------------------

D
-3-3-3-3---5-5-5-5---7---5/7---5/7--5/7--

A
-1-1-1-1---3-3-3-3---5---3/5---3/5--3/5--

D
-----------------------------------------


e
-----------------------------------------

B
-----------------------------------------

G
-----------------------------------------

D
-3-3-3-3---5-5-5-5---7---5/7---5/7--5/7--

A
-1-1-1-1---3-3-3-3---5---3/5---3/5--3/5--

D
-----------------------------------------


e
-----------------------------------------

B
-----------------------------------------

G
-----------------------------------------

D
-3-3-3-3---5-5-5-5---7---5/7---5/7--5/7--

A
-1-1-1-1---3-3-3-3---5---3/5---3/5--3/5--

D
-----------------------------------------


e
------------------------------------------------------------------

B
------------------------------------------------------------------

G
------------------------------------------------------------------

D
-3-3-3-3---5-5-5-5------3-3-3-3---5-5-5-5------3-3-3-3---5-5-5-5--

A
-1-1-1-1---3-3-3-3------1-1-1-1---3-3-3-3------1-1-1-1---3-3-3-3--

D
------------------------------------------------------------------


Outro:
e
-----------------------------------------------------------------------

B
-----------------------------------------------------------------------

G
-7-7---------------7-7---------------7-7---------------7-7-------------

D
------0-3-5-6-5---------0-3-5-6-5---------0-3-5-6-5---------0-3-5-6-5--

A
-5-5--0-3-5-6-5----5-5--0-3-5-6-5----5-5--0-3-5-6-5----5-5--0-3-5-6-5--

D
------0-3-5-6-5---------0-3-5-6-5---------0-3-5-6-5---------0-3-5-6-5--


e
-----------------------------------------------------------------------

B
-----------------------------------------------------------------------

G
-7-7---------------7-7---------------7-7---------------7-7-------------

D
------0-3-5-6-5---------0-3-5-6-5---------0-3-5-6-5---------0-3-5-6-5--

A
-5-5--0-3-5-6-5----5-5--0-3-5-6-5----5-5--0-3-5-6-5----5-5--0-3-5-6-5--

D
------0-3-5-6-5---------0-3-5-6-5---------0-3-5-6-5---------0-3-5-6-5--


-----------------------------------------------------------------------------
                                Me Against Me
-----------------------------------------------------------------------------

Intro 1:
NOTE: The single notes are done on a bass.
The powerchords are distortion.
e
----------------------------------------------------------

B
----------------------------------------------------------

G
----------------------------------------------------------

D
--------------------0-2-3-------------------------0-2-3---

A
--------------------0-2-3-------------------------0-2-3---

D
-5-222-3-222-5-222--0-2-3------5-222-3-222-5-222--0-2-3---


e
--------------------------0~~~----------------------------

B
--------------------------0~~~----------------------------

G
--------------------------0~~~----------------------------

D
--------------------0-2-3-------------------------0-2-3---

A
--------------------0-2-3-------------------------0-2-3---

D
-5-222-3-222-5-222--0-2-3------5-222-3-222-5-222--0-2-3---


Intro 2:
e
----------------------------------------------------

B
----------------------------------------------------

G
-----777777------7--------------777777------7-------

D
-22----------22-----03------22----------22-----03---

A
-22--555555--22--5--03------22--555555--22--5--03---

D
-22----------22-----03------22----------22-----03---


e
----------------------------------------------------

B
----------------------------------------------------

G
-----777777------7--------------777777------7-------

D
-22----------22-----03------22----------22-----03---

A
-22--555555--22--5--03------22--555555--22--5--03---

D
-22----------22-----03------22----------22-----03---


Verse 1:
(Clean, heavy reverb)
e
--------------------------------------------------------------------------

B
--------------------------------------------------------------------------

G
--------------------------------------------------------------------------

D
-9~~~~~~------------------------------------------------------------------

A
-9~~~~~-------------------------------------------------------------------

D
-9~~~~~-------------------------------------------------------------------

                            *Plays together.
(Phaser)
e
--------------------------------------------------------------------------

B
----------------------------------------x-x-x---x-------------------------

G
----------------------------xx-xx-xx---xx-x-x---xx-x-x---xx-x-x--xx-xx-xx-

D
-xx-x-x---xx-x-x---xx-x-x---xx-xx-xx-----------------------------xx-xx-xx-

A
-xx-x-x---xx-x-x---xx-x-x----------------------------------------xx-xx----

D
-xx-x-x---xx-x-x---xx-x-x-------------------------------------------------


(Clean, heavy reverb)
e
--------------------------------------------------------------------------

B
--------------------------------------------------------------------------

G
--------------------------------------------------------------------------

D
-9~~~~~~------------------------------------------------------------------

A
-9~~~~~-------------------------------------------------------------------

D
-9~~~~~-------------------------------------------------------------------

                            *Plays together.
(Distortion on the ending powerchords)
e
--------------------------------------------------------------------------

B
--------------------------------------------------------------------------

G
-xx-x-x---xx-x-x---xx-x-x-------------------------------------------------

D
-xx-x-x---xx-x-x---xx-x-x---xx-xx-xx---xx-x-x---xx-x-x---xx-x-x---x-0-2-3-

A
----------------------------xx-xx-xx---xx-x-x---xx-x-x---xx-x-x---x-0-2-3-

D
--------------------------------------------------------------------0-2-3-


Chorus 1:
e
---------------------------------------------------------

B
---------------------------------------------------------

G
-----------------------------------------------999-999---

D
-5-5-5---0-0-0---222-222-------5-5-5---0-0-0-------------

A
-5-5-5---0-0-0---222-222-------5-5-5---0-0-0---777-777---

D
-5-5-5---0-0-0---222-222-------5-5-5---0-0-0-------------


e
---------------------------------------------------------

B
---------------------------------------------------------

G
---------------------------------------------------------

D
-5-5-5---0-0-0---222-222-------5-5-5---0-2-3-------------

A
-5-5-5---0-0-0---222-222-------5-5-5---0-2-3-------------

D
-5-5-5---0-0-0---222-222-------5-5-5---0-2-3-------------


Verse 2:

Verse 1:
(Clean, heavy reverb)
e
--------------------------------------------------------------------------

B
--------------------------------------------------------------------------

G
--------------------------------------------------------------------------

D
-9~~~~~~------------------------------------------------------------------

A
-9~~~~~-------------------------------------------------------------------

D
-9~~~~~-------------------------------------------------------------------

                            *Plays together.
(Phaser)
e
--------------------------------------------------------------------------

B
----------------------------------------x-x-x---x-------------------------

G
----------------------------xx-xx-xx---xx-x-x---xx-x-x---xx-x-x--xx-xx-xx-

D
-xx-x-x---xx-x-x---xx-x-x---xx-xx-xx-----------------------------xx-xx-xx-

A
-xx-x-x---xx-x-x---xx-x-x----------------------------------------xx-xx----

D
-xx-x-x---xx-x-x---xx-x-x-------------------------------------------------


(Clean, heavy reverb)
e
--------------------------------------------------------------------------

B
--------------------------------------------------------------------------

G
--------------------------------------------------------------------------

D
-9~~~~~~------------------------------------------------------------------

A
-9~~~~~-------------------------------------------------------------------

D
-9~~~~~-------------------------------------------------------------------

                            *Plays together.
(Distortion on the ending powerchords)
e
--------------------------------------------------------------------------

B
--------------------------------------------------------------------------

G
-xx-x-x---xx-x-x---xx-x-x-------------------------------------------------

D
-xx-x-x---xx-x-x---xx-x-x---xx-xx-xx---xx-x-x---xx-x-x---xx-x-x---x-0-2-3-

A
----------------------------xx-xx-xx---xx-x-x---xx-x-x---xx-x-x---x-0-2-3-

D
--------------------------------------------------------------------0-2-3-


Chorus 2:
e
---------------------------------------------------------

B
---------------------------------------------------------

G
-----------------------------------------------999-999---

D
-5-5-5---0-0-0---222-222-------5-5-5---0-0-0-------------

A
-5-5-5---0-0-0---222-222-------5-5-5---0-0-0---777-777---

D
-5-5-5---0-0-0---222-222-------5-5-5---0-0-0-------------


e
---------------------------------------------------------

B
---------------------------------------------------------

G
---------------------------------------------------------

D
-5-5-5---0-0-0---222-222-------5-5-5---0-2-3-------------

A
-5-5-5---0-0-0---222-222-------5-5-5---0-2-3-------------

D
-5-5-5---0-0-0---222-222-------5-5-5---0-2-3-------------


e
----------------------------------------------------

B
----------------------------------------------------

G
-----777777------7--------------777777------7-------

D
-22----------22-----03------22----------22-----03---

A
-22--555555--22--5--03------22--555555--22--5--03---

D
-22----------22-----03------22----------22-----03---


e
----------------------------------------------------

B
----------------------------------------------------

G
-----777777------7--------------777777------7-------

D
-22----------22-----03------22----------22-----03---

A
-22--555555--22--5--03------22--555555--22--5--03---

D
-22----------22-----03------22----------22-----03---


Bridge 1:
(Phaser)
e
--------------------------------------------------------------------------

B
---------------------------xx-xx-xx------------------------------xx-xx-xx-

G
---------------------------xx-xx-xx------------------------------xx-xx-xx-

D
-xx-x-x---xx-x-x---xx-x-x--xx-xx-xx---xx-x-x---xx-x-x---xx-x-x---xx-xx-xx-

A
-xx-x-x---xx-x-x---xx-x-x-------------xx-x-x---xx-x-x---xx-x-x------------

D
-xx-x-x---xx-x-x---xx-x-x-------------xx-x-x---xx-x-x---xx-x-x------------


e
--------------------------------------------------------------------------

B
---------------------------xx-xx-xx------------------------------xx-xx-xx-

G
---------------------------xx-xx-xx------------------------------xx-xx-xx-

D
-xx-x-x---xx-x-x---xx-x-x--xx-xx-xx---xx-x-x---xx-x-x---xx-x-x---xx-xx-xx-

A
-xx-x-x---xx-x-x---xx-x-x-------------xx-x-x---xx-x-x---xx-x-x------------

D
-xx-x-x---xx-x-x---xx-x-x-------------xx-x-x---xx-x-x---xx-x-x------------


e
--------------------------------------------------------------------------

B
---------------------------xx-xx-xx---xx-x-x---xx-x-x------------xx-xx-xx-

G
---------------------------xx-xx-xx---xx-x-x---xx-x-x------------xx-xx-xx-

D
-xx-x-x---xx-x-x---xx-x-x--xx-xx-xx---xx-x-x---xx-x-x---xx-x-x---xx-xx-xx-

A
-xx-x-x---xx-x-x---xx-x-x-------------xx-x-x---xx-x-x---xx-x-x------------

D
-xx-x-x---xx-x-x---xx-x-x-------------xx-x-x---xx-x-x---xx-x-x------------


Bridge 2:
e
-------------------------------------------------------------------------

B
-------------------------------------------------------------------------

G
-99-99---9-99-99---9-99-99---9-7~~~~~-99-99---9-99-99---9-99-99--9-10~~~-

D
-------------------------------------------------------------------------

A
-77-77---7-77-77---7-77-77---7-5~~~~~-77-77---7-77-77---7-77-77--7-8~~~--

D
-------------------------------------------------------------------------


e
--------------------------------------------------------------------------

B
--------------------------------------------------------------------------

G
-99-99---9-99-99---9-99-99---9-7~~~~~-99-99---9-99-99---9-99-99--9--------

D
--------------------------------------------------------------------0-2-3-

A
-77-77---7-77-77---7-77-77---7-5~~~~~-77-77---7-77-77---7-77-77--7--0-2-3-

D
--------------------------------------------------------------------0-2-3-



Chorus 3:
(Phaser off)
e
---------------------------------------------------------

B
---------------------------------------------------------

G
-----------------------------------------------999-999---

D
-5-5-5---0-0-0---222-222-------5-5-5---0-0-0-------------

A
-5-5-5---0-0-0---222-222-------5-5-5---0-0-0---777-777---

D
-5-5-5---0-0-0---222-222-------5-5-5---0-0-0-------------


e
---------------------------------------------------------

B
---------------------------------------------------------

G
---------------------------------------------------------

D
-5-5-5---0-0-0---222-222-------5-5-5---0-2-3-------------

A
-5-5-5---0-0-0---222-222-------5-5-5---0-2-3-------------

D
-5-5-5---0-0-0---222-222-------5-5-5---0-2-3-------------


e
----------------------------------------------------

B
----------------------------------------------------

G
-----777777------7--------------777777------7-------

D
-22----------22-----03------22----------22-----03---

A
-22--555555--22--5--03------22--555555--22--5--03---

D
-22----------22-----03------22----------22-----03---


e
----------------------------------------------------

B
----------------------------------------------------

G
-----777777------7--------------777777------7-------

D
-22----------22-----03------22----------22-----03---

A
-22--555555--22--5--03------22--555555--22--5--03---

D
-22----------22-----03------22----------22-----03---


Outro:
e
----------------------------------------------------

B
----------------------------------------------------

G
-----777777------7--------------777777------7-------

D
-22----------22-----03------22----------22-----03---

A
-22--555555--22--5--03------22--555555--22--5--03---

D
-22----------22-----03------22----------22-----03---


e
----------------------------------------------------

B
----------------------------------------------------

G
-----777777------7--------------777777------7-------

D
-22----------22-----03------22----------22-----03---

A
-22--555555--22--5--03------22--555555--22--5--03---

D
-22----------22-----03------22----------22-----03---


Outro 2:
(Heavy reverb)
e
---------------------------------------------------------------------------

B
---------------------------------------------------------------------------

G
---------------------------------------------------------------------------

D
-2-(2)-(2)-(2)---5-(5)-(5)-(5)-(5)---0-(0)-(0)-(0)-(0)-(0)-(0)-(0)-(0)-(0)-

A
---------------------------------------------------------------------------

D
---------------------------------------------------------------------------


e
---------------------------------------------------------------------------

B
---------------------------------------------------------------------------

G
---------------------------------------------------------------------------

D
-2-(2)-(2)-(2)-(2)-(2)-(2)-(2)---4-(4)-(4)-(4)-(4)-(4)-(4)-(4)-(4)-(4)-----

A
---------------------------------------------------------------------------

D
---------------------------------------------------------------------------


e
---------------------------------------------------------------------------

B
---------------------------------------------------------------------------

G
---------------------------------------------------------------------------

D
-2-(2)-(2)-(2)-(2)-(2)-(2)-(2)--0-(0)-(0)-(0)-2-(2)-0-(0)-(0)-(0)-(0)------

A
---------------------------------------------------------------------------

D
---------------------------------------------------------------------------



-----------------------------------------------------------------------------
                                       PS
-----------------------------------------------------------------------------

Intro:
(Clean)
e
-----------------------------------------------------------------------

B
-----------------------------------------------------------------------

G
-8-8-8---7-7-7---5/7-7-7-7-7-----8-7----8-7----8-7----8-7----8-7--7/8--

D
-0-0-0---0-0-0---0-0-0-0-0-0---------0------0------0------0-------0----
X4
A
-----------------------------------------------------------------------

D
------------------------------0----------------------------------------


Verse 1:
e
-----------------------------------------------------------------------

B
-----------------------------------------------------------------------

G
-8-8-8---7-7-7---5/7-7-7-7-7-----8-7----8-7----8-7----8-7----8-7--7/8--

D
-0-0-0---0-0-0---0-0-0-0-0-0---------0------0------0------0-------0----

A
-----------------------------------------------------------------------

D
------------------------------0----------------------------------------


e
-----------------------------------------------------------------------

B
-----------------------------------------------------------------------

G
-8-8-8---7-7-7---5/7-7-7-7-7-----8-7----8-7----8-7----8-7----8-7--7/8--

D
-0-0-0---0-0-0---0-0-0-0-0-0---------0------0------0------0-------0----

A
-----------------------------------------------------------------------

D
------------------------------0----------------------------------------


e
-----------------------------------------------------------------------

B
-----------------------------------------------------------------------

G
-8-8-8---7-7-7---5/7-7-7-7-7-----8-7----8-7----8-7----8-7----8-7--7/8--

D
-0-0-0---0-0-0---0-0-0-0-0-0---------0------0------0------0-------0----

A
-----------------------------------------------------------------------

D
------------------------------0----------------------------------------


NOTE: Distortion comes in and builds on
the 7/5 octaves.
e
-----------------------------------------------------------------------

B
-----------------------------------------------------------------------

G
-8-8-8---7-7-7---5/7-7-7-7-7-----7-7-7-7-7-7-7-7---7-7-7-7-7-7-7-7-----

D
-0-0-0---0-0-0---0-0-0-0-0-0-------------------------------------------

A
---------------------------------5-5-5-5-5-5-5-5---5-5-5-5-5-5-5-5-----

D
------------------------------0----------------------------------------


Chorus 1:
(Distortion)
e
-----------------------------------------------------------------------

B
-----------------------------------------------------------------------

G
-----------------5/7-7-7-7-7-----8-8-8-7-------8-8-8-7-------8-8-7-----

D
-1-1-1---0-0-0---5/7-7-7-7-7--0--8-8-8-7--0-0--8-8-8-7--0-0--8-8-7--0--
X4
A
-1-1-1---0-0-0---3/5-5-5-5-5--0--6-6-6-5--0-0--6-6-6-5--0-0--6-6-5--0--

D
-1-1-1---0-0-0----------------0-----------0-0-----------0-0---------0--

pm                                          . .           . . 

Verse 2:
(Clean)
e
-------------------------------------------------------------------------

B
-------------------------------------------------------------------------

G
-8-8-8---7-7-7---5/7-7-7-7-7-----10-10-10--5-5-5--8-8-8--7-7-7--8-8--7-7-

D
-0-0-0---0-0-0---0-0-0-0-0-0-----0--0--0---0-0-0--0-0-0--0-0-0--0-0--0-0-

A
-------------------------------------------------------------------------

D
------------------------------0------------------------------------------


e
-----------------------------------------------------------------------

B
-----------------------------------------------------------------------

G
-8-8-8---7-7-7---5/7-7-7-7-7-----8-7----8-7----8-7----8-7----8-7--7/8--

D
-0-0-0---0-0-0---0-0-0-0-0-0---------0------0------0------0-------0----

A
-----------------------------------------------------------------------

D
------------------------------0----------------------------------------


e
-------------------------------------------------------------------------

B
-------------------------------------------------------------------------

G
-8-8-8---7-7-7---5/7-7-7-7-7-----10-10-10--5-5-5--8-8-8--7-7-7--8-8--7-7-

D
-0-0-0---0-0-0---0-0-0-0-0-0-----0--0--0---0-0-0--0-0-0--0-0-0--0-0--0-0-

A
-------------------------------------------------------------------------

D
------------------------------0------------------------------------------


e
-----------------------------------------------------------------------

B
-----------------------------------------------------------------------

G
-8-8-8---7-7-7---5/7-7-7-7-7-----8-7----8-7----8-7----8-7----8-7--7/8--

D
-0-0-0---0-0-0---0-0-0-0-0-0---------0------0------0------0-------0----

A
-----------------------------------------------------------------------

D
------------------------------0----------------------------------------


Chorus 2:
(Distortion)
e
-----------------------------------------------------------------------

B
-----------------------------------------------------------------------

G
-----------------5/7-7-7-7-7-----8-8-8-7-------8-8-8-7-------8-8-7-----

D
-1-1-1---0-0-0---5/7-7-7-7-7--0--8-8-8-7--0-0--8-8-8-7--0-0--8-8-7--0--
X4
A
-1-1-1---0-0-0---3/5-5-5-5-5--0--6-6-6-5--0-0--6-6-6-5--0-0--6-6-5--0--

D
-1-1-1---0-0-0----------------0-----------0-0-----------0-0---------0--

pm                                          . .           . . 

Bridge 1:
e
--------------------------------------------------------

B
--------------------------------------------------------

G
------------------------------13-13-13-----13-13-13-----

D
-1-1-1-1-1-1-1-1----0~~~--------------------------------

A
-1-1-1-1-1-1-1-1----0~~~---0--11-11-11--0--11-11-11--0--

D
-1-1-1-1-1-1-1-1----0~~~---0------------0------------0--


e
--------------------------------------------------------

B
--------------------------------------------------------

G
------------------------------13-13-13-----13-13-13-----

D
-1-1-1-1-1-1-1-1----0~~~--------------------------------

A
-1-1-1-1-1-1-1-1----0~~~---0--11-11-11--0--11-11-11--0--

D
-1-1-1-1-1-1-1-1----0~~~---0------------0------------0--


e
--------------------------------------------------------

B
--------------------------------------------------------

G
--------------------------------------------------------

D
-1-1-1-1-1-1-1-1----0~~~~~~-----------------------------

A
-1-1-1-1-1-1-1-1----0~~~~~~-----------------------------

D
-1-1-1-1-1-1-1-1----0~~~~~~-----------------------------


Verse 3:
(Clean)
e
-----------------------------------------------------------------------

B
-----------------------------------------------------------------------

G
-8-8-8---7-7-7---5/7-7-7-7-7-----8-7----8-7----8-7----8-7----8-7--7/8--

D
-0-0-0---0-0-0---0-0-0-0-0-0---------0------0------0------0-------0----
X11
A
-----------------------------------------------------------------------

D
------------------------------0----------------------------------------


NOTE: Distortion comes in and builds on
the 7/5 octaves.
e
-----------------------------------------------------------------------

B
-----------------------------------------------------------------------

G
-8-8-8---7-7-7---5/7-7-7-7-7-----7-7-7-7-7-7-7-7---7-7-7-7-7-7-7-7-----

D
-0-0-0---0-0-0---0-0-0-0-0-0-------------------------------------------

A
---------------------------------5-5-5-5-5-5-5-5---5-5-5-5-5-5-5-5-----

D
------------------------------0----------------------------------------


Chorus 3:
(Distortion)
e
-----------------------------------------------------------------------

B
-----------------------------------------------------------------------

G
-----------------5/7-7-7-7-7-----8-8-8-7-------8-8-8-7-------8-8-7-----

D
-1-1-1---0-0-0---5/7-7-7-7-7--0--8-8-8-7--0-0--8-8-8-7--0-0--8-8-7--0--
X4
A
-1-1-1---0-0-0---3/5-5-5-5-5--0--6-6-6-5--0-0--6-6-6-5--0-0--6-6-5--0--

D
-1-1-1---0-0-0----------------0-----------0-0-----------0-0---------0--

pm                                          . .           . . 

Outro:
e
-------------------------------------------------

B
-------------------------------------------------

G
-888-----888-----888-----888-----888-----888-----

D
-888--0--888--0--888--0--888--0--888--0--888--0--

A
-666--0--666--0--666--0--666--0--666--0--666--0--

D
------0-------0-------0-------0-------0-------0--


e
-------------------------------------------------

B
-------------------------------------------------

G
-888-----888-----888-----888-----888-------------

D
-888--0--888--0--888--0--888--0--888--0~~~~~-----

A
-666--0--666--0--666--0--666--0--666--0~~~~~~----

D
------0-------0-------0-------0-------0~~~~~~----


-----------------------------------------------------------------------------
                                   Set Me Up
-----------------------------------------------------------------------------

Intro:
e
----------------------------------------------------------

B
---------------------------9------------------------------

G
---------------------------8------------------------------

D
-0~~--0-5h6---0~~--0-5h6---6---0~~--0-5h6---0~~--xx-xx----

A
-0~~--0-5h6---0~~--0-5h6-------0~~--0-5h6---0~~--xx-xx----

D
-0~~--0-5h6---0~~--0-5h6-------0~~--0-5h6---0~~--xx-xx----


e
-------------------------

B
---------------------9---

G
---------------------8---

D
---------------------6---

A
-------------------------

D
-666-000-666-000-66------


Verse 1:
e
----------------------------------------------

B
----------------------------------------------

G
-------7-----------------------7--------------

D
-6-60-----00-6p0-6p0-----6-60-----00-6p0-6p0--
X4
A
-6-60--5--00-6p0-6p0-----6-60--5--00-6p0-6p0--

D
-6-60-----00-6p0-6p0-----6-60-----00-6p0-6p0--


e
-------------------------------------------------------

B
-------------------------------------------------------

G
-13-13-13-13-13-13-13-13------13-13-13-13-13-13-13-13--

D
-------------------------------------------------------

A
-11-11-11-11-11-11-11-11------11-11-11-11-11-11-11-11--

D
-------------------------------------------------------


e
-------------------------------------------------------

B
-------------------------------------------------------

G
-13-13-13-13-13-13-13-13------13-----------------------

D
-------------------------------------------------------

A
-11-11-11-11-11-11-11-11------11-----------------------

D
-------------------------------------------------------


e
----------------------------------------------

B
----------------------------------------------

G
-------7-----------------------7--------------

D
-6-60-----00-6p0-6p0-----6-60-----00-6p0-6p0--
X4
A
-6-60--5--00-6p0-6p0-----6-60--5--00-6p0-6p0--

D
-6-60-----00-6p0-6p0-----6-60-----00-6p0-6p0--


e
-------------------------------------------------------

B
-------------------------------------------------------

G
-13-13-13-13-13-13-13-13------13-13-13-13-13-13-13-13--

D
-------------------------------------------------------

A
-11-11-11-11-11-11-11-11------11-11-11-11-11-11-11-11--

D
-------------------------------------------------------


e
-------------------------------------------------------

B
-------------------------------------------------------

G
-13-13-13-13-13-13-13-13------13-13-13-13-13-13-13-13--

D
-------------------------------------------------------

A
-11-11-11-11-11-11-11-11------11-11-11-11-11-11-11-11--

D
-------------------------------------------------------


Chorus 1:
e
----------------------------------------------------------

B
---------------------------9------------------------------

G
----------------------------------------------------------

D
-0~~--0-5h6---0~~--0-5h6---6---0~~--0-5h6---0~~--xx-xx----

A
-0~~--0-5h6---0~~--0-5h6-------0~~--0-5h6---0~~--xx-xx----

D
-0~~--0-5h6---0~~--0-5h6-------0~~--0-5h6---0~~--xx-xx----


e
----------------------------------------------------------

B
---------------------------9------------------------------

G
----------------------------------------------------------

D
-0~~--0-5h6---0~~--0-5h6---6---0~~--0-5h6---0~~--xx-xx----

A
-0~~--0-5h6---0~~--0-5h6-------0~~--0-5h6---0~~--xx-xx----

D
-0~~--0-5h6---0~~--0-5h6-------0~~--0-5h6---0~~--xx-xx----


e
----------------------------------------------------------

B
---------------------------9------------------------------

G
----------------------------------------------------------

D
-0~~--0-5h6---0~~--0-5h6---6---0~~--0-5h6---0~~--xx-xx----

A
-0~~--0-5h6---0~~--0-5h6-------0~~--0-5h6---0~~--xx-xx----

D
-0~~--0-5h6---0~~--0-5h6-------0~~--0-5h6---0~~--xx-xx----


e
----------------------------------------------------------

B
---------------------------9------------------------------

G
----------------------------------------------------------

D
-0~~--0-5h6---0~~--0-5h6---6---0~~--0-5h6---0~~--xx-xx----

A
-0~~--0-5h6---0~~--0-5h6-------0~~--0-5h6---0~~--xx-xx----

D
-0~~--0-5h6---0~~--0-5h6-------0~~--0-5h6---0~~--xx-xx----



Verse 2:
e
-------------------------

B
---------------------9---

G
---------------------8---

D
---------------------6---

A
-------------------------

D
-666-000-666-000-66------


e
----------------------------------------------

B
----------------------------------------------

G
-------7-----------------------7--------------

D
-6-60-----00-6p0-6p0-----6-60-----00-6p0-6p0--
X4
A
-6-60--5--00-6p0-6p0-----6-60--5--00-6p0-6p0--

D
-6-60-----00-6p0-6p0-----6-60-----00-6p0-6p0--


Chorus 2:
e
----------------------------------------------------------

B
---------------------------9------------------------------

G
---------------------------8------------------------------

D
-0~~--0-5h6---0~~--0-5h6---6---0~~--0-5h6---0~~--xx-xx----

A
-0~~--0-5h6---0~~--0-5h6-------0~~--0-5h6---0~~--xx-xx----

D
-0~~--0-5h6---0~~--0-5h6-------0~~--0-5h6---0~~--xx-xx----


e
----------------------------------------------------------

B
---------------------------9------------------------------

G
---------------------------8------------------------------

D
-0~~--0-5h6---0~~--0-5h6---6---0~~--0-5h6---0~~--xx-xx----

A
-0~~--0-5h6---0~~--0-5h6-------0~~--0-5h6---0~~--xx-xx----

D
-0~~--0-5h6---0~~--0-5h6-------0~~--0-5h6---0~~--xx-xx----


e
----------------------------------------------------------

B
---------------------------9------------------------------

G
---------------------------8------------------------------

D
-0~~--0-5h6---0~~--0-5h6---6---0~~--0-5h6---0~~--xx-xx----

A
-0~~--0-5h6---0~~--0-5h6-------0~~--0-5h6---0~~--xx-xx----

D
-0~~--0-5h6---0~~--0-5h6-------0~~--0-5h6---0~~--xx-xx----


e
----------------------------------------------------------

B
---------------------------9------------------------------

G
---------------------------8------------------------------

D
-0~~--0-5h6---0~~--0-5h6---6---0~~--0-5h6---0~~--xx-xx----

A
-0~~--0-5h6---0~~--0-5h6-------0~~--0-5h6---0~~--xx-xx----

D
-0~~--0-5h6---0~~--0-5h6-------0~~--0-5h6---0~~--xx-xx----


e
-----------

B
-----------

G
-----------

D
-0~~~~~~---

A
-0~~~~~~---

D
-0~~~~~~---


Bridge 1:
e
------------------------------------------------------------------

B
------------------------------------------------------------------

G
-8p7--8p7--7-----8p7--8p7--7---------8--8p7--7-----8p7--8p7--7----

D
-0-0--0-0--0-----0-0--0-0--0-----0~~-0--0-0--0-----0-0--0-0--0----

A
-0-0--0-0--0-----0-0--0-0--0-----0~~-0--0-0--0-----0-0--0-0--0----

D
-0-0--0-0--0-----0-0--0-0--0-----0~~-0--0-0--0-----0-0--0-0--0----


e
------------------------------------------------------------------

B
------------------------------------------------------------------

G
-----8--8p7--7-----8p7--8p7--7---------8--8p7--7-----8p7--8p7--7--

D
-0~~-0--0-0--0-----0-0--0-0--0-----0~~-0--0-0--0-----0-0--0-0--0--

A
-0~~-0--0-0--0-----0-0--0-0--0-----0~~-0--0-0--0-----0-0--0-0--0--

D
-0~~-0--0-0--0-----0-0--0-0--0-----0~~-0--0-0--0-----0-0--0-0--0--


Bridge 2 (Solo):

e
------------------------------------------------------------------------

B
------------------------------------------------------------------------

G
-8-8-8-8-8-8-8-8---8-8-8-8-8-8-8-8---8-8-8-8-8-8-8-8---8-8-8-8-8-8-8-8--

D
------------------------------------------------------------------------

A
-6-----6p0-----------6p0-6p0---------6p0-----6p0-------6p0---6p0---6p0--

D
------------------------------------------------------------------------


e
------------------------------------------------------------------------

B
------------------------------------------------------------------------

G
-8-8-8-8-8-8-8-8---8-8-8-8-8-8-8-8---8-8-8-8-8-8-8-8---8-8-8-8-8-8-8-8--

D
------------------------------------------------------------------------

A
-6p0-----6p0-------6p0---6p0---6p0---6p0-----6p0-------6p0--6p0-6p0-6p0-

D
------------------------------------------------------------------------


e
------------------------------------------------------------------------

B
------------------------------------------------------------------------

G
-8-8-8-8-8-8-8-8---8-8-8-8-8-8-8-8---8-8-8-8-8-8-8-8---8-8-8-8-8-8-8-8--

D
------------------------------------------------------------------------

A
-6p0---------------6p0-----6p0-------6p0-----6p0-------6p0---6p0--------

D
------------------------------------------------------------------------


e
------------------------------------------------------------------------

B
------------------------------------------------------------------------

G
-8-8-8-8-8-8-8-8---8-8-8-8-8-8-8-8---8-8-8-8-8-8-8-8---8-8-8-8-8-8-8-8--

D
------------------------------------------------------------------------

A
-6p0---------------6p0-----6p0-------6p0-----6p0-6p0---6p0-6p0-6p0-6p0--

D
------------------------------------------------------------------------


Verse 3:
e
----------------------------------------------

B
----------------------------------------------

G
-------7-----------------------7--------------

D
-6-60-----00-6p0-6p0-----6-60-----00-6p0-6p0--
X4
A
-6-60--5--00-6p0-6p0-----6-60--5--00-6p0-6p0--

D
-6-60-----00-6p0-6p0-----6-60-----00-6p0-6p0--


Outro:
e
---------------

B
---------------

G
------7~~~~~~--

D
-6-00-0~~~~~~--

A
-6-00-0~~~~~~--

D
-6-00-0~~~~~~--


-----------------------------------------------------------------------------
                                   Chimes
-----------------------------------------------------------------------------

Intro:
(Clean)
e
---------------------------------------------------------------------

B
----------------10-10-9~~~----9----9-----------10-10-9~~~----999999--

G
-7-77777----7~~-7--7--7~~~7---777777-------7~~-7--7--7~~~----777777--

D
-0-00000----0~~-0--0--0~~~----000000-------0~~-0--0--0~~~----000000--

A
---------------------------------------------------------------------

D
---------------------------------------------------------------------


Verse 1:
e
--------------------------------------------------------

B
-----10-10-9~~~----999999---------10-10-9~~~----999999--

G
-7~~-7--7--7~~~----777777-----7~~-7--7--7~~~----777777--

D
-0~~-0--0--0~~~----000000-----0~~-0--0--0~~~----000000--

A
--------------------------------------------------------

D
--------------------------------------------------------


e
--------------------------------------------------------

B
-----10-10-9~~~----999999---------10-10-9~~~----999999--

G
-7~~-7--7--7~~~----777777-----7~~-7--7--7~~~----777777--

D
-0~~-0--0--0~~~----000000-----0~~-0--0--0~~~----000000--

A
--------------------------------------------------------

D
--------------------------------------------------------


NOTE: The last part (the open top strings)
fades in.
e
--------------------------------------------------------

B
-----10-10-9~~~----999999---------10-10-9~~~------------

G
-7~~-7--7--7~~~----777777-----7~~-7--7--7~~~-7----------

D
-0~~-0--0--0~~~----000000-----0~~-0--0--0~~~----0-------

A
------------------------------------------------0-------

D
------------------------------------------------0-------


Chorus 1:
(Distortion)
e
--------------------------------------------------------

B
--------------------------------------------------------

G
--------------------------------------------------------

D
-0~~-6-6-0-5~~~-555555--------0~~-6-6-0-5~~~-555555-----

A
-0~~-6-6-0-5~~~-555555--------0~~-6-6-0-5~~~-555555-----

D
-0~~-6-6-0-5~~~-555555--------0~~-6-6-0-5~~~-555555-----


e
--------------------------------------------------------

B
--------------------------------------------------------

G
--------------------------------------------------------

D
-0~~-6-6-0-5~~~-555555--------0~~-6-6-0-5~~~-555555-----

A
-0~~-6-6-0-5~~~-555555--------0~~-6-6-0-5~~~-555555-----

D
-0~~-6-6-0-5~~~-555555--------0~~-6-6-0-5~~~-555555-----


Verse 2:
e
--------------------------------------------------------

B
--------------------------------------------------------

G
--------------------------------------------------------

D
-0~~~~~~------------------------------------------------

A
-0~~~~~~------------------------------------------------

D
-0~~~~~~------------------------------------------------

                *Above and below plays together
(Clean)
e
--------------------------------------------------------

B
-----10-10-9~~~----999999---------10-10-9~~~----999999--

G
-7~~-7--7--7~~~7---777777-----7~~-7--7--7~~~----777777--

D
-0~~-0--0--0~~~----000000-----0~~-0--0--0~~~----000000--

A
--------------------------------------------------------

D
--------------------------------------------------------


NOTE: The last part (the open top strings)
fades in.
e
--------------------------------------------------------

B
-----10-10-9~~~----999999---------10-10-9~~~------------

G
-7~~-7--7--7~~~----777777-----7~~-7--7--7~~~-7----------

D
-0~~-0--0--0~~~----000000-----0~~-0--0--0~~~----0-------

A
------------------------------------------------0-------

D
------------------------------------------------0-------


Chorus 1:
(Distortion)
e
--------------------------------------------------------

B
--------------------------------------------------------

G
--------------------------------------------------------

D
-0~~-6-6-0-5~~~-555555--------0~~-6-6-0-5~~~-555555-----

A
-0~~-6-6-0-5~~~-555555--------0~~-6-6-0-5~~~-555555-----

D
-0~~-6-6-0-5~~~-555555--------0~~-6-6-0-5~~~-555555-----


e
--------------------------------------------------------

B
--------------------------------------------------------

G
--------------------------------------------------------

D
-0~~-6-6-0-5~~~-555555--------0~~-6-6-0-5~~~-555555-----

A
-0~~-6-6-0-5~~~-555555--------0~~-6-6-0-5~~~-555555-----

D
-0~~-6-6-0-5~~~-555555--------0~~-6-6-0-5~~~-555555-----


Bridge 1:
e
-----------------------------------------------------------------------

B
-----------------------------------------------------------------------

G
-------------8-----------------8-----------------8-----------------88--

D
-0--3-5--00--------0--3-5--00--------0--3-5--00--------0--3-5--00------

A
-0--3-5--00--6-----0--3-5--00--6-----0--3-5--00--6-----0--3-5--00--66--

D
-0--3-5--00--------0--3-5--00--------0--3-5--00--------0--3-5--00------


e
-----------------------------------------------------------------------

B
-----------------------------------------------------------------------

G
-------------8-----------------8-----------------8-----------------8\--

D
-0--3-5--00--------0--3-5--00--------0--3-5--00--------0--3-5--00------

A
-0--3-5--00--6-----0--3-5--00--6-----0--3-5--00--6-----0--3-5--00--6\--

D
-0--3-5--00--------0--3-5--00--------0--3-5--00--------0--3-5--00------


Bridge 2:
e
--------------------------------------------------------------------------

B
--------------------------------------------------------------------------

G
-777-77--------------------------------777-77-----------------------------

D
---------666-66--555-55--300-300-30------------666-66--555-55--300-300-30-

A
-555-55--666-66--555-55--300-300-30----555-55--666-66--555-55--300-300-30-

D
---------666-66--555-55--300-300-30------------666-66--555-55--300-300-30-


e
--------------------------------------------------------------------------

B
--------------------------------------------------------------------------

G
-777-77--------------------------------777-77-----------------------------

D
---------666-66--555-55--300-300-30------------666-66--555-55--30-30-30-30

A
-555-55--666-66--555-55--300-300-30----555-55--666-66--555-55--30-30-30-30

D
---------666-66--555-55--300-300-30------------666-66--555-55--30-30-30-30


Bridge 3:
e
-----------------------------------------------------------------------

B
-----------------------------------------------------------------------

G
-------------8-----------------8-----------------8-----------------88--

D
-0--3-5--00--------0--3-5--00--------0--3-5--00--------0--3-5--00------

A
-0--3-5--00--6-----0--3-5--00--6-----0--3-5--00--6-----0--3-5--00--66--

D
-0--3-5--00--------0--3-5--00--------0--3-5--00--------0--3-5--00------


e
-----------------------------------------------------------------------

B
-----------------------------------------------------------------------

G
-------------8-----------------8-----------------8-----------------8v--

D
-0--3-5--00--------0--3-5--00--------0--3-5--00--------0--3-5--00------

A
-0--3-5--00--6-----0--3-5--00--6-----0--3-5--00--6-----0--3-5--00--6v--

D
-0--3-5--00--------0--3-5--00--------0--3-5--00--------0--3-5--00------


e
----------

B
----------

G
----------

D
-0~~~~~~--

A
-0~~~~~~--

D
-0~~~~~~--


Chorus 3:
(Distortion)
e
--------------------------------------------------------

B
--------------------------------------------------------

G
--------------------------------------------------------

D
-0~~-6-6-0-5~~~-555555--------0~~-6-6-0-5~~~-555555-----

A
-0~~-6-6-0-5~~~-555555--------0~~-6-6-0-5~~~-555555-----

D
-0~~-6-6-0-5~~~-555555--------0~~-6-6-0-5~~~-555555-----


e
--------------------------------------------------------

B
--------------------------------------------------------

G
--------------------------------------------------------

D
-0~~-6-6-0-5~~~-555555--------0~~-6-6-0-5~~~-555555-----

A
-0~~-6-6-0-5~~~-555555--------0~~-6-6-0-5~~~-555555-----

D
-0~~-6-6-0-5~~~-555555--------0~~-6-6-0-5~~~-555555-----


e
----------

B
----------

G
----------

D
-0~~~~~~--

A
-0~~~~~~--

D
-0~~~~~~--


Outro:
(Clean)
e
--------------------------------------------------------

B
-----10-10-9~~~----999999---------10-10-9~~~----999999--

G
-7~~-7--7--7~~~----777777-----7~~-7--7--7~~~----777777--

D
-0~~-0--0--0~~~----000000-----0~~-0--0--0~~~----000000--

A
--------------------------------------------------------

D
--------------------------------------------------------


e
--------------------------------------------------------

B
-----10-10-9~~~----999999---------10-10-9~~~----999999--

G
-7~~-7--7--7~~~----777777-----7~~-7--7--7~~~----777777--

D
-0~~-0--0--0~~~----000000-----0~~-0--0--0~~~----000000--

A
--------------------------------------------------------

D
--------------------------------------------------------


e
--------------------------------------------------------

B
-----10-10-9~~~-----------------------------------------

G
-7~~-7--7--7~~~-----------------------------------------

D
-0~~-0--0--0~~~-----------------------------------------

A
--------------------------------------------------------

D
--------------------------------------------------------


-----------------------------------------------------------------------------
                             A Toast To My Former Self
-----------------------------------------------------------------------------

Intro 1:
e
---------------------------------------------------------------------------

B
---------------------------------------------------------------------------

G
---------------------------------------------------------------------------

D
---------------------------------------------------------------------------

A
---------------------------------------------------------------------------

D
---------------------------------------------------------------------------


Intro 2:
e
------------------------------------------

B
------------------------------------------

G
------------------------------------------

D
-55-3--66-5--33-66-----55-3--66-5--33-66--
X2
A
-55-3--66-5--33-66-----55-3--66-5--33-66--

D
-55-3--66-5--33-66-----55-3--66-5--33-66--


Verse 1:
(weird effect)
NOTE: The effect here is actually unfortunate. 
The guitar is actually playing a really cool riff,
and is unfortunetely layered with an effect
making it hard to here.
e
---------------------------------------

B
---------------------------------------

G
---------------------------------------

D
---------------------------------------
X9
A
---------------------------------------

D
-5-3-0-3-6-5-3-0----5-3-0-3-6-5-3-0----


Pre-Chorus 1:
e
-----------------------------------------------------------------

B
-----------------------------------------------------------------

G
-7-5-8--7-5-8----7-5-8--7-5-8----7-5-8--7-5-8----7-5-8--7-5-8----

D
-----------------------------------------------------------------

A
-5-3-6--5-3-6----5-3-6--5-3-6----5-3-6--5-3-6----5-3-6--5-3-6----

D
-----------------------------------------------------------------


Chorus 1:
e
-----------------------------------------

B
-----------------------------------------

G
-7--9--10--9---10-10---------------------

D
----------------------11111111-11111111--

A
-5--7--8---7---8--8---11111111-11111111--

D
----------------------11111111-11111111--


e
-----------------------------------------

B
-----------------------------------------

G
-7--9--10--9---10-10---------------------

D
----------------------11111111-11111111--

A
-5--7--8---7---8--8---11111111-11111111--

D
----------------------11111111-11111111--


e
-----------------------------------------

B
-----------------------------------------

G
-7--9--10--9---10-10---------------------

D
----------------------11111111-11111111--

A
-5--7--8---7---8--8---11111111-11111111--

D
----------------------11111111-11111111--


e
----------------------

B
----------------------

G
-7--9--10--9---10-10--

D
----------------------

A
-5--7--8---7---8--8---

D
----------------------


e
------------------------------------------

B
------------------------------------------

G
------------------------------------------

D
-55-3--66-5--33-66-----55-3--66-5--33-66--

A
-55-3--66-5--33-66-----55-3--66-5--33-66--

D
-55-3--66-5--33-66-----55-3--66-5--33-66--


e
------------------------------------------

B
------------------------------------------

G
------------------------------------------

D
-55-3--66-5--33-66-----55-3--66-5--33-66--

A
-55-3--66-5--33-66-----55-3--66-5--33-66--

D
-55-3--66-5--33-66-----55-3--66-5--33-66--


Verse 2:
e
---------------------------------------

B
---------------------------------------

G
---------------------------------------

D
---------------------------------------
X9
A
---------------------------------------

D
-5-3-0-3-6-5-3-0----5-3-0-3-6-5-3-0----


Pre-Chorus 2:
e
-----------------------------------------------------------------

B
-----------------------------------------------------------------

G
-7-5-8--7-5-8----7-5-8--7-5-8----7-5-8--7-5-8----7-5-8--7-5-8----

D
-----------------------------------------------------------------

A
-5-3-6--5-3-6----5-3-6--5-3-6----5-3-6--5-3-6----5-3-6--5-3-6----

D
-----------------------------------------------------------------


Chorus 2:
e
-----------------------------------------

B
-----------------------------------------

G
-7--9--10--9---10-10---------------------

D
----------------------11111111-11111111--

A
-5--7--8---7---8--8---11111111-11111111--

D
----------------------11111111-11111111--


e
-----------------------------------------

B
-----------------------------------------

G
-7--9--10--9---10-10---------------------

D
----------------------11111111-11111111--

A
-5--7--8---7---8--8---11111111-11111111--

D
----------------------11111111-11111111--


e
-----------------------------------------

B
-----------------------------------------

G
-7--9--10--9---10-10---------------------

D
----------------------11111111-11111111--

A
-5--7--8---7---8--8---11111111-11111111--

D
----------------------11111111-11111111--


e
----------------------

B
----------------------

G
-7--9--10--9---10-10--

D
----------------------

A
-5--7--8---7---8--8---

D
----------------------


e
------------------------------------------

B
------------------------------------------

G
------------------------------------------

D
-55-3--66-5--33-66-----55-3--66-5--33-66--

A
-55-3--66-5--33-66-----55-3--66-5--33-66--

D
-55-3--66-5--33-66-----55-3--66-5--33-66--


e
------------------------------------------

B
------------------------------------------

G
------------------------------------------

D
-55-3--66-5--33-66-----55-3--66-5--33-66--

A
-55-3--66-5--33-66-----55-3--66-5--33-66--

D
-55-3--66-5--33-66-----55-3--66-5--33-66--


e
------------

B
------------

G
------------

D
-0~~~~~~----

A
-0~~~~~~----

D
-0~~~~~~----


Bridge:
e
--------------------------------------------------------

B
--------------------------------------------------------

G
--------------------------------------------------------

D
--------------------------------------------------------
X2
A
--------------------------------------------------------

D
-55-33-66-33---55-33-66-33---55-33-66-33---55-33-66-33--

pm .. .. .. ..   .. .. .. ..   .. .. .. ..   .. .. .. ..

Outro:
e
-----------------------------------------------------------------

B
-----------------------------------------------------------------

G
-7-5-8--7-5-8----7-5-8--7-5-8----7-5-8--7-5-8----7-5-8--7-5-8----

D
-----------------------------------------------------------------

A
-5-3-6--5-3-6----5-3-6--5-3-6----5-3-6--5-3-6----5-3-6--5-3-6----

D
-----------------------------------------------------------------


e
-----------------------------------------------------------------

B
-----------------------------------------------------------------

G
-7-5-8--7-5-8----7-5-8--7-5-8----7-5-8--7-5-8----7-5-8--7-5-8----

D
-----------------------------------------------------------------

A
-5-3-6--5-3-6----5-3-6--5-3-6----5-3-6--5-3-6----5-3-6--5-3-6----

D
-----------------------------------------------------------------


e
---------

B
---------

G
---------

D
-5~~~\---

A
-5~~~\---

D
-5~~~\---


-----------------------------------------------------------------------------
                                  Sad Machines
-----------------------------------------------------------------------------

e
------------------14-----------------------

B
------------------12-----------------------

G
-------------------------------------------

D
-9-99-0---7/9-99------7/9-99-0---77-10-10--
X4
A
-9-99-0---7/9-99------7/9-99-0---77-10-10--

D
-9-99-0---7/9-99------7/9-99-0---77-10-10--


e
-----------

B
-----------

G
-----------

D
-9~~~~~~---

A
-9~~~~~~---

D
-9~~~~~~---


Verse 1:
e
----------------------------------

B
----------------------------------

G
--------11-----------12---99999---

D
----99--9--------10-------77777---
X4
A
-9-----------10-----------77777---

D
----------------------------------


Chorus 1:
e
------------------------------------------------------------

B
------------------------------------------------------------

G
-----11-------------11--------------------------------------

D
-99------0--7/9-99------0-77777777--7/10-10-10-10-10-10-10--
X4
A
-99--9---0--7/9-99--9---0-77777777--7/10-10-10-10-10-10-10--

D
-99------0--7/9-99------0-77777777--7/10-10-10-10-10-10-10--


e
-----------

B
-----------

G
-----------

D
-9~~~~~~---

A
-9~~~~~~---

D
-9~~~~~~---


Verse 2:
e
----------------------------------

B
----------------------------------

G
--------11-----------12---99999---

D
----99--9--------10-------77777---
X4
A
-9-----------10-----------77777---

D
----------------------------------



Chorus 2:
e
------------------------------------------------------------

B
------------------------------------------------------------

G
-----11-------------11--------------------------------------

D
-99------0--7/9-99------0-77777777--7/10-10-10-10-10-10-10--
X3
A
-99--9---0--7/9-99--9---0-77777777--7/10-10-10-10-10-10-10--

D
-99------0--7/9-99------0-77777777--7/10-10-10-10-10-10-10--


e
------------------------------------------------------------

B
------------------------------------------------------------

G
-----11-------------11--------------------------------------

D
-99------0--7/9-99------0-77777777--77777777----------------

A
-99--9---0--7/9-99--9---0-77777777--77777777----------------

D
-99------0--7/9-99------0-77777777--77777777----------------


Bridge 1:
e
--------------------------------------------------------------------------

B
--------------------------------------------------------------------------

G
--------------------------------------------------------------------------

D
-99999999-99999999-44444444-44444444-55555555-55555555-44444444-44444444--

A
-99999999-99999999-44444444-44444444-55555555-55555555-44444444-44444444--

D
-99999999-99999999-44444444-44444444-55555555-55555555-44444444-44444444--


e
--------------------------------------------------------------------------

B
--------------------------------------------------------------------------

G
--------------------------------------------------------------------------

D
-99999999-99999999-44444444-44444444-55555555-55555555-44444444-44444444--

A
-99999999-99999999-44444444-44444444-55555555-55555555-44444444-44444444--

D
-99999999-99999999-44444444-44444444-55555555-55555555-44444444-44444444--


e
--------------------------------------------------------------------------

B
--------------------------------------------------------------------------

G
--------------------12-12-12-12-12-12-12-12-12-12-12-12-12-12-12-12-------

D
-44444444-44444444--11-11-11-11-11-11-11-11-11-11-11-11-11-11-11-11-------

A
-44444444-44444444--10-10-10-10-10-10-10-10-10-10-10-10-10-10-10-10-------

D
-44444444-44444444--------------------------------------------------------


e
--------------------------------------------------

B
--------------------------------------------------

G
-12-12-12-12-12-12-12-12-12-12-12-12-12-12-12-12--

D
-11-11-11-11-11-11-11-11-11-11-11-11-11-11-11-11--

A
-10-10-10-10-10-10-10-10-10-10-10-10-10-10-10-10--

D
--------------------------------------------------


Bridge 2:
e
--------------------------------------------------

B
--------------------------------------------------

G
-----------------------------------------------9--

D
-99-77-9p7~~--99-77-9p7~~--99-77-9p7~~--99-77-----
X4
A
-99-77-9p7~~--99-77-9p7~~--99-77-9p7~~--99-77--7--

D
-99-77-9p7~~--99-77-9p7~~--99-77-9p7~~--99-77-----


e
------------------

B
------------------

G
------------------

D
-9~~~~~~-7-77-77--

A
-9~~~~~~-7-77-77--

D
-9~~~~~~-7-77-77--



Chorus 3:
e
------------------------------------------------------------

B
------------------------------------------------------------

G
-----11-------------11--------------------------------------

D
-99------0--7/9-99------0-77777777--7/10-10-10-10-10-10-10--
X4
A
-99--9---0--7/9-99--9---0-77777777--7/10-10-10-10-10-10-10--

D
-99------0--7/9-99------0-77777777--7/10-10-10-10-10-10-10--


e
------------------------------------------------------------

B
------------------------------------------------------------

G
-----11-------------11--------------------------------------

D
-99------0--7/9-99------0-77777777--7/10-10-10-10-10-10-10--
X4
A
-99--9---0--7/9-99--9---0-77777777--7/10-10-10-10-10-10-10--

D
-99------0--7/9-99------0-77777777--7/10-10-10-10-10-10-10--


-----------------------------------------------------------------------------
                                     Star
-----------------------------------------------------------------------------

NOTE: I am making this tab mostly from the 
live video I have of Randy playing this live.
So, I'm not going to bother tabbing any of the
piano. Since I have video of him performing this,
I assure you it is 100% accurate.

Intro 1:
(Some effect guitar. Maybe Ebow.)
e
-10~~~~~~~~~~\6~~~~~~~~~~-/13~~~~-

B
----------------------------------

G
----------------------------------

D
----------------------------------

A
----------------------------------

D
----------------------------------

         *Above and below play together.
e
-------------------------------------------------------------------------

B
-------------------------------------------------------------------------

G
-7----------------10---8-8-8-8-8-8----7----------------10---8-8-8-8-8-8--

D
-----------------------6-6-6-6-6-6--------------------------6-6-6-6-6-6--

A
----10-13-12---12--------6---6-6-6-------10-13-12---12--------6---6-6-6--

D
-----------------------------6-6-6--------------------------------6-6-6--


e
-------------------------------------------------------------------------

B
-------------------------------------------------------------------------

G
-7----------------10---8-8-8-8-8-8----7----------------10---8-8-8-8-8-8--

D
-----------------------6-6-6-6-6-6--------------------------6-6-6-6-6-6--

A
----10-13-12---12--------6---6-6-6-------10-13-12---12--------6---6-6-6--

D
-----------------------------6-6-6--------------------------------6-6-6--


Verse 1:
NOTE: In the verses, as well in the intro,
you don't have to follow which strings to hit
in the 6th fret power chord with the G string on
the 8th fret. Just lightly strum it whatever you
way you like. It varies each time.
e
-------------------------------------------------------------------------

B
-------------------------------------------------------------------------

G
-7----------------10---8-8-8-8-8-8----7----------------10---8-8-8-8v-----

D
-----------------------6-6-6-6-6-6--------------------------6-6-6--------

A
----10-13-12---12--------6---6-6-6-------10-13-12---12--------6----------

D
-----------------------------6-6-6---------------------------------------


e
-------------------------------------------------------------------------

B
-------------------------------------------------------------------------

G
-7----------------10---8-8-8-8-8-8----7----------------10---8-8-8-8-8-8--

D
-----------------------6-6-6-6-6-6--------------------------6-6-6-6-6-6--

A
----10-13-12---12--------6---6-6-6-------10-13-12---12--------6---6-6-6--

D
-----------------------------6-6-6--------------------------------6-6-6--


Chorus 1:
e
------------------------------------------------------------------------

B
------------------------------------------------------------------------

G
------------------------------------------------------------------------

D
-0-0-00--1-1-11--5--55-55-555-----0-0-00---1-1-11---5--55-55-555--------

A
-0-0-00--1-1-11--5--55-55-555-----0-0-00---1-1-11---5--55-55-555--------

D
-0-0-00--1-1-11--5--55-55-555-----0-0-00---1-1-11---5--55-55-555--------


e
------------------------------------------------------------------------

B
------------------------------------------------------------------------

G
-------------------------------------------------------------------7~~--

D
-0-0-00--1-1-11--5--55-55-555----0-0-00---1-1-11---5--55-55-555-5~-5~~--

A
-0-0-00--1-1-11--5--55-55-555----0-0-00---1-1-11---5--55-55-555-5~-5~~--

D
-0-0-00--1-1-11--5--55-55-555----0-0-00---1-1-11---5--55-55-555-5~-5~~--


After-Chorus 1 Music:
e
-------------------------------------------------------------------------

B
-------------------------------------------------------------------------

G
-7----------------10---8-8-8-8-8-8----7----------------10---8-8-8-8------

D
-----------------------6-6-6-6-6-6--------------------------6-6-6--------

A
----10-13-12---12--------6---6-6-6-------10-13-12---12--------6----------

D
-----------------------------6-6-6---------------------------------------


Verse 2:
e
-------------------------------------------------------------------------

B
-------------------------------------------------------------------------

G
-7----------------10---8-8-8-8-8-8----7----------------10---8-8-8-8-8-8--

D
-----------------------6-6-6-6-6-6--------------------------6-6-6-6-6-6--

A
----10-13-12---12--------6---6-6-6-------10-13-12---12--------6---6-6-6--

D
-----------------------------6-6-6--------------------------------6-6-6--


e
-------------------------------------------------------------------------

B
-------------------------------------------------------------------------

G
-7----------------10---8-8-8-8-8-8----7----------------10---8-8-8-8-8-8--

D
-----------------------6-6-6-6-6-6--------------------------6-6-6-6-6-6--

A
----10-13-12---12--------6---6-6-6-------10-13-12---12--------6---6-6-6--

D
-----------------------------6-6-6--------------------------------6-6-6--


Chorus 2:
e
------------------------------------------------------------------------

B
------------------------------------------------------------------------

G
------------------------------------------------------------------------

D
-0-0-00--1-1-11--5--55-55-555-----0-0-00---1-1-11---5--55-55-555--------

A
-0-0-00--1-1-11--5--55-55-555-----0-0-00---1-1-11---5--55-55-555--------

D
-0-0-00--1-1-11--5--55-55-555-----0-0-00---1-1-11---5--55-55-555--------


e
------------------------------------------------------------------------

B
------------------------------------------------------------------------

G
-------------------------------------------------------------------7~~--

D
-0-0-00--1-1-11--5--55-55-555----0-0-00---1-1-11---5--55-55-555-5~-5~~--

A
-0-0-00--1-1-11--5--55-55-555----0-0-00---1-1-11---5--55-55-555-5~-5~~--

D
-0-0-00--1-1-11--5--55-55-555----0-0-00---1-1-11---5--55-55-555-5~-5~~--


e
------------------------------------------------------------------------

B
-------------------------(3)---(3)--------------------------------------

G
--------------2~~---2~~---2~~---2~~---2~~---2~~---2~~---2~~-------------

D
-55-55-55-55--0~~---0~~---0~~---0~~---0~~---0~~---0~~---0~~-------------

A
-55-55-55-55--0~~---0~~---0~~---0~~---0~~---0~~---0~~---0~~-------------

D
-55-55-55-55--0~~---0~~---0~~---0~~---0~~---0~~---0~~---0~~-------------


Outro:
(Some effect guitar. Maybe Ebow.)
e
-10~~~~~~~~~~\6~~~~~~~~~~-/13~~~~-

B
----------------------------------

G
----------------------------------

D
----------------------------------
X8
A
----------------------------------

D
----------------------------------


-----------------------------------------------------------------------------
                                   Chapter 2
-----------------------------------------------------------------------------

Intro:
e
--------------------------------------

B
--------------------------------------

G
--------------------------------------

D
--------------------------------------
X4
A
--------------------------------------

D
-6p0--0-6p0--0-6p0--0-6p0--0-6p0-6p0--


Chorus 1:
e
--------------------------------------

B
--------------------------------------

G
--------------------------------------

D
-6p0--0-6p0--0-6p0--0-6p0--0-6p0-6p0--

A
-6p0--0-6p0--0-6p0--0-6p0--0-6p0-6p0--

D
-6p0--0-6p0--0-6p0--0-6p0--0-6p0-6p0--


e
--------------------------------------

B
--------------------------------------

G
--------------------------------------

D
-6p0--0-6p0--0-6p0--0-6p0--0-6p0-6p0--

A
-6p0--0-6p0--0-6p0--0-6p0--0-6p0-6p0--

D
-6p0--0-6p0--0-6p0--0-6p0--0-6p0-6p0--


e
--------------------------------------

B
--------------------------------------

G
--------------------------------------

D
-6p0--0-6p0--0-6p0--0-6p0--0-6p0-6p0--

A
-6p0--0-6p0--0-6p0--0-6p0--0-6p0-6p0--

D
-6p0--0-6p0--0-6p0--0-6p0--0-6p0-6p0--


e
--------------------------------------

B
--------------------------------------

G
--------------------------------------

D
-6p0--0-6p0--0-6-x6~~-x7~~------------

A
-6p0--0-6p0--0-6-x6~~-x7~~------------

D
-6p0--0-6p0--0-6-x6~~-x7~~------------


e
--------------------------------------

B
--------------------------------------

G
--------------------------------------

D
-6p0--0-6p0--0-6p0--0-6p0--0-6p0-6p0--

A
-6p0--0-6p0--0-6p0--0-6p0--0-6p0-6p0--

D
-6p0--0-6p0--0-6p0--0-6p0--0-6p0-6p0--


e
--------------------------------------

B
--------------------------------------

G
--------------------------------------

D
-6p0--0-6p0--0-6p0--0-6p0--0-6p0-6p0--

A
-6p0--0-6p0--0-6p0--0-6p0--0-6p0-6p0--

D
-6p0--0-6p0--0-6p0--0-6p0--0-6p0-6p0--


e
--------------------------------------

B
--------------------------------------

G
--------------------------------------

D
-6p0--0-6p0--0-6p0--0-6p0--0-6p0-6p0--

A
-6p0--0-6p0--0-6p0--0-6p0--0-6p0-6p0--

D
-6p0--0-6p0--0-6p0--0-6p0--0-6p0-6p0--


e
--------------------------------------

B
--------------------------------------

G
--------------------------------------

D
-6p0--0-6p0--0-6-x6~~-x7~~------------

A
-6p0--0-6p0--0-6-x6~~-x7~~------------

D
-6p0--0-6p0--0-6-x6~~-x7~~------------


e
-----------------------------------------

B
-----------------------------------------

G
-----------------------------------------

D
-55555555-55555555----55555555-5555xxxx--

A
-55555555-55555555----55555555-5555xxxx--

D
-55555555-55555555----66666666-6666xxxx--


After-Chorus 1 Music :
e
-----------------------------------------------------

B
-15-15-15-15-15-15-15-15----15-15-15-15-16-16-16-16--

G
-----------------------------------------------------

D
-12-12-12-12-12-12-12-12----12-12-12-12-13-13-13-13--

A
-----------------------------------------------------

D
-----------------------------------------------------


e
-----------------------------------------------------

B
-15-15-15-15-15-15-15-15----15-15-15-15-16-16-16-16--

G
-----------------------------------------------------

D
-12-12-12-12-12-12-12-12----12-12-12-12-13-13-13-13--

A
-----------------------------------------------------

D
-----------------------------------------------------


Verse 1:
e
-----------------------------------------------------

B
-15-15-15-15-15-15-15-15----15-15-15-15-16-16-16-16--

G
-----------------------------------------------------

D
-12-12-12-12-12-12-12-12----12-12-12-12-13-13-13-13--

A
-----------------------------------------------------

D
-----------------------------------------------------


e
-----------------------------------------------------

B
-13-13-13-13-13-13-13-13----13-13-13-13-16-16-16-16--

G
-----------------------------------------------------

D
-10-10-10-10-10-10-10-10----10-10-10-10-13-13-13-13--

A
-----------------------------------------------------

D
-----------------------------------------------------


e
-----------------------------------------------------

B
-15-15-15-15-15-15-15-15----15-15-15-15-16-16-16-16--

G
-----------------------------------------------------

D
-12-12-12-12-12-12-12-12----12-12-12-12-13-13-13-13--

A
-----------------------------------------------------

D
-----------------------------------------------------


e
-----------------------------------------------------

B
-13-13-13-13-13-13-13-13----13-13-13-13-16-16-16-16--

G
-----------------------------------------------------

D
-10-10-10-10-10-10-10-10----10-10-10-10-13-13-13-13--

A
-----------------------------------------------------

D
-----------------------------------------------------


e
-----------------------------------------------------

B
-15-15-15-15-15-15-15-15----15-15-15-15-16-16-16-16--

G
-----------------------------------------------------

D
-12-12-12-12-12-12-12-12----12-12-12-12-13-13-13-13--

A
-----------------------------------------------------

D
-----------------------------------------------------


e
-----------------------------------------------------

B
-13-13-13-13-13-13-13-13----13-13-13-13-16-16-16-16--

G
-----------------------------------------------------

D
-10-10-10-10-10-10-10-10----10-10-10-10-13-13-13-13--

A
-----------------------------------------------------

D
-----------------------------------------------------


e
-----------------------------------------------------

B
-15-15-15-15-15-15-15-15----15-15-15-15-16-16-16-16--

G
-----------------------------------------------------

D
-12-12-12-12-12-12-12-12----12-12-12-12-13-13-13-13--

A
-----------------------------------------------------

D
-----------------------------------------------------


e
-----------------------------------------------------

B
-13-13-13-13-13-13-13-13----13-13-13-13-16-16-16-16--

G
-----------------------------------------------------

D
-10-10-10-10-10-10-10-10----10-10-10-10-13-13-13-13--

A
-----------------------------------------------------

D
-----------------------------------------------------



Chorus 2:
e
--------------------------------------

B
--------------------------------------

G
--------------------------------------

D
-6p0--0-6p0--0-6p0--0-6p0--0-6p0-6p0--

A
-6p0--0-6p0--0-6p0--0-6p0--0-6p0-6p0--

D
-6p0--0-6p0--0-6p0--0-6p0--0-6p0-6p0--


e
--------------------------------------

B
--------------------------------------

G
--------------------------------------

D
-6p0--0-6p0--0-6p0--0-6p0--0-6p0-6p0--

A
-6p0--0-6p0--0-6p0--0-6p0--0-6p0-6p0--

D
-6p0--0-6p0--0-6p0--0-6p0--0-6p0-6p0--


e
--------------------------------------

B
--------------------------------------

G
--------------------------------------

D
-6p0--0-6p0--0-6p0--0-6p0--0-6p0-6p0--

A
-6p0--0-6p0--0-6p0--0-6p0--0-6p0-6p0--

D
-6p0--0-6p0--0-6p0--0-6p0--0-6p0-6p0--


e
--------------------------------------

B
--------------------------------------

G
--------------------------------------

D
-6p0--0-6p0--0-6-x6~~-x7~~------------

A
-6p0--0-6p0--0-6-x6~~-x7~~------------

D
-6p0--0-6p0--0-6-x6~~-x7~~------------


e
--------------------------------------

B
--------------------------------------

G
--------------------------------------

D
-6p0--0-6p0--0-6p0--0-6p0--0-6p0-6p0--

A
-6p0--0-6p0--0-6p0--0-6p0--0-6p0-6p0--

D
-6p0--0-6p0--0-6p0--0-6p0--0-6p0-6p0--


e
--------------------------------------

B
--------------------------------------

G
--------------------------------------

D
-6p0--0-6p0--0-6p0--0-6p0--0-6p0-6p0--

A
-6p0--0-6p0--0-6p0--0-6p0--0-6p0-6p0--

D
-6p0--0-6p0--0-6p0--0-6p0--0-6p0-6p0--


e
--------------------------------------

B
--------------------------------------

G
--------------------------------------

D
-6p0--0-6p0--0-6p0--0-6p0--0-6p0-6p0--

A
-6p0--0-6p0--0-6p0--0-6p0--0-6p0-6p0--

D
-6p0--0-6p0--0-6p0--0-6p0--0-6p0-6p0--


e
--------------------------------------

B
--------------------------------------

G
--------------------------------------

D
-6p0--0-6p0--0-6-x6~~-x7~~------------

A
-6p0--0-6p0--0-6-x6~~-x7~~------------

D
-6p0--0-6p0--0-6-x6~~-x7~~--6b~~~-----


Verse 2:
e
-----------------------------------------------------

B
-15-15-15-15-15-15-15-15----15-15-15-15-16-16-16-16--

G
-----------------------------------------------------

D
-12-12-12-12-12-12-12-12----12-12-12-12-13-13-13-13--

A
-----------------------------------------------------

D
-----------------------------------------------------


e
-----------------------------------------------------

B
-13-13-13-13-13-13-13-13----13-13-13-13-16-16-16-16--

G
-----------------------------------------------------

D
-10-10-10-10-10-10-10-10----10-10-10-10-13-13-13-13--

A
-----------------------------------------------------

D
-----------------------------------------------------


e
-----------------------------------------------------

B
-15-15-15-15-15-15-15-15----15-15-15-15-16-16-16-16--

G
-----------------------------------------------------

D
-12-12-12-12-12-12-12-12----12-12-12-12-13-13-13-13--

A
-----------------------------------------------------

D
-----------------------------------------------------


e
-----------------------------------------------------

B
-13-13-13-13-13-13-13-13----13-13-13-13-16-16-16-16--

G
-----------------------------------------------------

D
-10-10-10-10-10-10-10-10----10-10-10-10-13-13-13-13--

A
-----------------------------------------------------

D
-----------------------------------------------------


e
-----------------------------------------------------

B
-15-15-15-15-15-15-15-15----15-15-15-15-16-16-16-16--

G
-----------------------------------------------------

D
-12-12-12-12-12-12-12-12----12-12-12-12-13-13-13-13--

A
-----------------------------------------------------

D
-----------------------------------------------------


e
-----------------------------------------------------

B
-13-13-13-13-13-13-13-13----13-13-13-13-16-16-16-16--

G
-----------------------------------------------------

D
-10-10-10-10-10-10-10-10----10-10-10-10-13-13-13-13--

A
-----------------------------------------------------

D
-----------------------------------------------------


e
-----------------------------------------------------

B
-15-15-15-15-15-15-15-15----15-15-15-15-16-16-16-16--

G
-----------------------------------------------------

D
-12-12-12-12-12-12-12-12----12-12-12-12-13-13-13-13--

A
-----------------------------------------------------

D
-----------------------------------------------------


e
-----------------------------------------------------

B
-13-13-13-13-13-13-13-13----13-13-13-13-16-16-16-16--

G
-----------------------------------------------------

D
-10-10-10-10-10-10-10-10----10-10-10-10-13-13-13-13--

A
-----------------------------------------------------

D
-----------------------------------------------------


Chorus 3:
e
--------------------------------------

B
--------------------------------------

G
--------------------------------------

D
-6p0--0-6p0--0-6p0--0-6p0--0-6p0-6p0--

A
-6p0--0-6p0--0-6p0--0-6p0--0-6p0-6p0--

D
-6p0--0-6p0--0-6p0--0-6p0--0-6p0-6p0--


e
--------------------------------------

B
--------------------------------------

G
--------------------------------------

D
-6p0--0-6p0--0-6p0--0-6p0--0-6p0-6p0--

A
-6p0--0-6p0--0-6p0--0-6p0--0-6p0-6p0--

D
-6p0--0-6p0--0-6p0--0-6p0--0-6p0-6p0--


e
--------------------------------------

B
--------------------------------------

G
--------------------------------------

D
-6p0--0-6p0--0-6p0--0-6p0--0-6p0-6p0--

A
-6p0--0-6p0--0-6p0--0-6p0--0-6p0-6p0--

D
-6p0--0-6p0--0-6p0--0-6p0--0-6p0-6p0--


e
--------------------------------------

B
--------------------------------------

G
--------------------------------------

D
-6p0--0-6p0--0-6-x6~~-x7~~------------

A
-6p0--0-6p0--0-6-x6~~-x7~~------------

D
-6p0--0-6p0--0-6-x6~~-x7~~------------


e
--------------------------------------

B
--------------------------------------

G
--------------------------------------

D
-6p0--0-6p0--0-6p0--0-6p0--0-6p0-6p0--

A
-6p0--0-6p0--0-6p0--0-6p0--0-6p0-6p0--

D
-6p0--0-6p0--0-6p0--0-6p0--0-6p0-6p0--


e
--------------------------------------

B
--------------------------------------

G
--------------------------------------

D
-6p0--0-6p0--0-6p0--0-6p0--0-6p0-6p0--

A
-6p0--0-6p0--0-6p0--0-6p0--0-6p0-6p0--

D
-6p0--0-6p0--0-6p0--0-6p0--0-6p0-6p0--


e
--------------------------------------

B
--------------------------------------

G
--------------------------------------

D
-6p0--0-6p0--0-6p0--0-6p0--0-6p0-6p0--

A
-6p0--0-6p0--0-6p0--0-6p0--0-6p0-6p0--

D
-6p0--0-6p0--0-6p0--0-6p0--0-6p0-6p0--


e
--------------------------------------

B
--------------------------------------

G
--------------------------------------

D
-6p0--0-6p0--0-6-x6~~-x7~~------------

A
-6p0--0-6p0--0-6-x6~~-x7~~------------

D
-6p0--0-6p0--0-6-x6~~-x7~~------------


Bridge:

e
--------------------------------------------

B
--------------------------------------------

G
-77777777-7777--8888--55555555----5----5----

D
-77777777-7777--8888--55555555--0-5-00-5-0--
X4
A
-55555555-5555--6666--33333333--0-3-00-3-0--

D
--------------------------------0---00---0--

pm                                .   ..   .

e
--------------------------------------------

B
--------------------------------------------

G
---------------------------------77777777---

D
-0~~~~~~------------------------------------

A
-0~~~~~~-------------------------55555555---

D
-0~~~~~~------------------------------------


Outro:
e
-----------------------------------------------

B
-----------------------------------------------

G
------777-888-55555/8---------777-888-55555/8--

D
-----------------------------------------------

A
-0000-555-666-33333/6----0000-555-666-33333/6--

D
-0000--------------------0000------------------

pm ....                    ....

e
-----------------------------------------------

B
-----------------------------------------------

G
------777-888-55555/8---------777-888-55555/8--

D
-----------------------------------------------

A
-0000-555-666-33333/6----0000-555-666-33333/6--

D
-0000--------------------0000------------------

pm ....                    ....

e
-----------------------------------------------

B
-----------------------------------------------

G
------777-888-55555/8---------777-888-55555/8--

D
-----------------------------------------------

A
-0000-555-666-33333/6----0000-555-666-33333/6--

D
-0000--------------------0000------------------

pm ....                    ....

e
-------------------------------------------------------------

B
-------------------------------------------------------------

G
------777-888-55555/8---------777-888-55-----7-------7-------

D
-------------------------------------------------------------

A
-0000-555-666-33333/6----0000-555-666-33-00--5p0-----5p0-----

D
-0000--------------------0000------------00------00------00--

pm ....                    ....



-----------------------------------------------------------------------------
                                   Open Hand
-----------------------------------------------------------------------------

NOTE: This song's chorus contains one of the
sweetest palm-muting riffs ever. Just thought
I'd let you all know. ;)

Intro:
e
------------------------------------------------------------

B
------------------------------------------------------------

G
------------------------------------------------------------

D
-3-2-0-2~~~~~~-----------2-2-2-2-2-2-2-2---2-2-2-2-2-2-2-2--

A
-3-2-0-2~~~~~~-----------2-2-2-2-2-2-2-2---2-2-2-2-2-2-2-2--

D
-3-2-0-2~~~~~~-----------2-2-2-2-2-2-2-2---2-2-2-2-2-2-2-2--

pm                         . . . . . . . .   . . . . . . . .

Verse 1:
e
---------------------------------------------------------------

B
---------------------------------------------------------------

G
---------------------------------------------------------------

D
-3-2-0-2---3-2-0-2---3-2-0~~-------3-2-0-2---3-2-0-2---3-2-xx--

A
-3-2-0-2---3-2-0-2---3-2-0~~-------3-2-0-2---3-2-0-2---3-2-xx--

D
-3-2-0-2---3-2-0-2---3-2-0~~-------3-2-0-2---3-2-0-2---3-2-xx--


e
---------------------------------------------------------------

B
---------------------------------------------------------------

G
---------------------------------------------------------------

D
-3-2-0-2---3-2-0-2---3-2-0~~-------3-2-0-2---3-2-0-2---3-2-xx--

A
-3-2-0-2---3-2-0-2---3-2-0~~-------3-2-0-2---3-2-0-2---3-2-xx--

D
-3-2-0-2---3-2-0-2---3-2-0~~-------3-2-0-2---3-2-0-2---3-2-xx--


e
---------------------------------------------------------------

B
---------------------------------------------------------------

G
---------------------------------------------------------------

D
-3-2-0-2---3-2-0-2---3-2-0~~-------3-2-0-2---3-2-0-2---3-2-xx--

A
-3-2-0-2---3-2-0-2---3-2-0~~-------3-2-0-2---3-2-0-2---3-2-xx--

D
-3-2-0-2---3-2-0-2---3-2-0~~-------3-2-0-2---3-2-0-2---3-2-xx--


e
---------------------------------------------------------------

B
---------------------------------------------------------------

G
---------------------------------------------------------------

D
-3-2-0-2---3-2-0-2---3-2-0~~-------3-2-0-2---3-2-0-2---3-2-xx--

A
-3-2-0-2---3-2-0-2---3-2-0~~-------3-2-0-2---3-2-0-2---3-2-xx--

D
-3-2-0-2---3-2-0-2---3-2-0~~-------3-2-0-2---3-2-0-2---3-2-xx--


Chorus 1:
e
----------

B
----------

G
-5~~~~~~--

D
-5~~~~~~--

A
-3~~~~~~--

D
----------


e
-------------------------------------------------------------------

B
-------------------------------------------------------------------

G
-------------------------------------------------------------------

D
-------------------------------------------------------------------

A
-------2----------2----------------------------------2-------------

D
-3-3-0-2----3-3-0-2----x3-3-0-------3-3-0-2----3-3-0-2----x3-3-0---

pm . . . .    . . . .     . . .       . . . .    . . . .     . . .


e
----------

B
----------

G
-5~~~~~~--

D
-5~~~~~~--

A
-3~~~~~~--

D
----------



e
-------------------------------------------------------------------

B
-------------------------------------------------------------------

G
-------------------------------------------------------------------

D
-------------------------------------------------------------------

A
-------2----------2----------------------------------2-------------

D
-3-3-0-2----3-3-0-2----x3-3-0-------3-3-0-2----3-3-0-2----x3-3-0---

pm . . . .    . . . .     . . .       . . . .    . . . .     . . .

Verse 2:

e
------------------------------

B
------------------------------

G
------------------------------

D
------------------------------

A
------------------------------

D
-3-2-0-2---3-2-0-2---0-3-2-0--


e
---------------------------------------------------------------

B
---------------------------------------------------------------

G
---------------------------------------------------------------

D
-3-2-0-2---3-2-0-2---3-2-0~~-------3-2-0-2---3-2-0-2---3-2-xx--

A
-3-2-0-2---3-2-0-2---3-2-0~~-------3-2-0-2---3-2-0-2---3-2-xx--

D
-3-2-0-2---3-2-0-2---3-2-0~~-------3-2-0-2---3-2-0-2---3-2-xx--


e
---------------------------------------------------------------

B
---------------------------------------------------------------

G
---------------------------------------------------------------

D
-3-2-0-2---3-2-0-2---3-2-0~~-------3-2-0-2---3-2-0-2---3-2-xx--

A
-3-2-0-2---3-2-0-2---3-2-0~~-------3-2-0-2---3-2-0-2---3-2-xx--

D
-3-2-0-2---3-2-0-2---3-2-0~~-------3-2-0-2---3-2-0-2---3-2-xx--


Chorus 2:
e
----------

B
----------

G
-5~~~~~~--

D
-5~~~~~~--

A
-3~~~~~~--

D
----------


e
-------------------------------------------------------------------

B
-------------------------------------------------------------------

G
-------------------------------------------------------------------

D
-------------------------------------------------------------------

A
-------2----------2----------------------------------2-------------

D
-3-3-0-2----3-3-0-2----x3-3-0-------3-3-0-2----3-3-0-2----x3-3-0---

pm . . . .    . . . .     . . .       . . . .    . . . .     . . .


e
----------

B
----------

G
-5~~~~~~--

D
-5~~~~~~--

A
-3~~~~~~--

D
----------



e
-------------------------------------------------------------------

B
-------------------------------------------------------------------

G
-------------------------------------------------------------------

D
-------------------------------------------------------------------

A
-------2----------2----------------------------------2-------------

D
-3-3-0-2----3-3-0-2----x3-3-0-------3-3-0-2----3-3-0-2----x3-3-0---

pm . . . .    . . . .     . . .       . . . .    . . . .     . . .

Bridge:

e
---------------------------------------------------------------

B
---------------------------------------------------------------

G
---------------------------------------------------------------

D
-3-2-0-2---3-2-0-2---3-2-0~~-------3-2-0-2---3-2-0-2---3-2-0~~-

A
-3-2-0-2---3-2-0-2---3-2-0~~-------3-2-0-2---3-2-0-2---3-2-0~~-

D
-3-2-0-2---3-2-0-2---3-2-0~~-------3-2-0-2---3-2-0-2---3-2-0~~-


e
-----------------------------------------

B
-----------------------------------------

G
-55555555--55555555--55555555--55555555--

D
-----------------------------------------

A
-33333333--33333333--33333333--33333333--

D
-----------------------------------------


e
--------------------------------------------

B
--------------------------------------------

G
--------------------------------------------

D
-0h2-220~--0h2-225~-----0h2-220~--0h2-225~--

A
-0h2-220~--0h2-225~-----0h2-220~--0h2-225~--

D
-0h2-220~--0h2-225~-----0h2-220~--0h2-225~--


e
--------------------------------------------

B
--------------------------------------------

G
--------------------------------------------

D
-0h2-220~--0h2-225~-----0h2-220~--0h2-225~--

A
-0h2-220~--0h2-225~-----0h2-220~--0h2-225~--

D
-0h2-220~--0h2-225~-----0h2-220~--0h2-225~--


e
--------------------------------------------

B
--------------------------------------------

G
--------------------------------------------

D
-0h2-220~--0h2-225~-----0h2-220~--0h2-225~--

A
-0h2-220~--0h2-225~-----0h2-220~--0h2-225~--

D
-0h2-220~--0h2-225~-----0h2-220~--0h2-225~--


e
--------------------------------------------

B
--------------------------------------------

G
--------------------------------------------

D
-0h2-220~--0h2-225~-----0h2-220~--0h2-225~--

A
-0h2-220~--0h2-225~-----0h2-220~--0h2-225~--

D
-0h2-220~--0h2-225~-----0h2-220~--0h2-225~--


e
-----------------------------------------

B
-----------------------------------------

G
-55555555--55555555--55555555--5b~~~~~~--

D
-----------------------------------------

A
-33333333--33333333--33333333--3b~~~~~~--

D
-----------------------------------------


Verse 3:
e
---------------------------------------------------------------

B
---------------------------------------------------------------

G
---------------------------------------------------------------

D
-3-2-0-2---3-2-0-2---3-2-0~~-------3-2-0-2---3-2-0-2---3-2-xx--

A
-3-2-0-2---3-2-0-2---3-2-0~~-------3-2-0-2---3-2-0-2---3-2-xx--

D
-3-2-0-2---3-2-0-2---3-2-0~~-------3-2-0-2---3-2-0-2---3-2-xx--


e
---------------------------------------------------------------

B
---------------------------------------------------------------

G
---------------------------------------------------------------

D
-3-2-0-2---3-2-0-2---3-2-0~~-------3-2-0-2---3-2-0-2---3-2-xx--

A
-3-2-0-2---3-2-0-2---3-2-0~~-------3-2-0-2---3-2-0-2---3-2-xx--

D
-3-2-0-2---3-2-0-2---3-2-0~~-------3-2-0-2---3-2-0-2---3-2-xx--


e
---------------------------------------------------------------

B
---------------------------------------------------------------

G
---------------------------------------------------------------

D
-3-2-0-2---3-2-0-2---3-2-0~~-------3-2-0-2---3-2-0-2---3-2-xx--

A
-3-2-0-2---3-2-0-2---3-2-0~~-------3-2-0-2---3-2-0-2---3-2-xx--

D
-3-2-0-2---3-2-0-2---3-2-0~~-------3-2-0-2---3-2-0-2---3-2-xx--


e
---------------------------------------------------------------

B
---------------------------------------------------------------

G
---------------------------------------------------------------

D
-3-2-0-2---3-2-0-2---3-2-0~~-------3-2-0-2---3-2-0-2---3-2-xx--

A
-3-2-0-2---3-2-0-2---3-2-0~~-------3-2-0-2---3-2-0-2---3-2-xx--

D
-3-2-0-2---3-2-0-2---3-2-0~~-------3-2-0-2---3-2-0-2---3-2-xx--


Outro:
e
---------------------------------------------------------------

B
---------------------------------------------------------------

G
---------------------------------------------------------------

D
-3-2-0-2---3-2-0-2---3-2-0~~-------3-2-0-2---3-2-0-2---3-2-0~~-

A
-3-2-0-2---3-2-0-2---3-2-0~~-------3-2-0-2---3-2-0-2---3-2-0~~-

D
-3-2-0-2---3-2-0-2---3-2-0~~-------3-2-0-2---3-2-0-2---3-2-0~~-

                    *Above and below play together
e
---------------------------------------------------------------

B
---------------------------------------------------------------

G
-5555-5555-------5555-5555---------5555-5555-------5555-5555---

D
---------------------------------------------------------------

A
-3333-3333-------3333-3333---------3333-3333-------3333-3333---

D
---------------------------------------------------------------




e
---------------------------------------------------------------

B
---------------------------------------------------------------

G
---------------------------------------------------------------

D
-3-2-0-2---3-2-0-2---3-2-0~~-------3-2-0-2---3-2-0-2-----------

A
-3-2-0-2---3-2-0-2---3-2-0~~-------3-2-0-2---3-2-0-2-----------

D
-3-2-0-2---3-2-0-2---3-2-0~~-------3-2-0-2---3-2-0-2-----------

                    *Above and below play together
e
---------------------------------------------------------------

B
---------------------------------------------------------------

G
-5555-5555-------5555-5555---------5555-5555-------555\--------

D
---------------------------------------------------------------

A
-3333-3333-------3333-3333---------3333-3333-------333\--------

D
---------------------------------------------------------------


-----------------------------------------------------------------------------
                                  Twenty-Three
-----------------------------------------------------------------------------

NOTE: This song is what you call "overlay overkill!"
There are so many layers in this song that for most of the
time, you cannot even hear one main guitar.

With that said...bare with me....

Intro:
e
---------------

B
---------------

G
-------8-------

D
-0-------------

A
-0-----6----0--

D
-0----------0--


Intro 2:
e
------------

B
------------

G
------------

D
-0~~~~~~----

A
-0~~~~~~----

D
-0~~~~~~----


Riff 1a
e
-------------------------

B
-------------------------

G
----------9-9-9-9--5~~---

D
-0-0-0-0-----------------
X8
A
-0-0-0-0--7-7-7-7--3~~---

D
-0-0-0-0-----------------


e
------------

B
-3~~~~~~----

G
-2~~~~~~----

D
-0~~~~~~----

A
-0~~~~~~----

D
-0~~~~~~----


Verse 1:
NOTE: All this is is MASSIVE pick scraping 
up and down every single sting

Riff 1b:
e
-------------------------

B
-------------------------

G
----------9-9-9-9--5~~---

D
-0-0-0-0-----------------
X8
A
-0-0-0-0--7-7-7-7--3~~---

D
-0-0-0-0-----------------



e
---------------------------------

B
-3~~~~~~-------------------------

G
-2~~~~~~-------------------------

D
-0~~~~~~-------------------0~~~--

A
-0~~~~~~-------------------0~~~--

D
-0~~~~~~*Pick-scrape--12\--0~~~--


NOTE: put your finger over the 12 fret
to the the muted sound.
e
-------------------------------------------------------12~~----

B
-x-x-x-x-x-x-x-x---x-x-x-x-x-x-x-x---x-x-x-x-x-x-x-x----0~~----

G
---------------------------------------------------------------

D
---------------------------------------------------------------

A
---------------------------------------------------------------

D
---------------------------------------------------------------



Verse 2:
e
-------------------------------------------------------------------

B
-------------------------------------------------------------------

G
-------------------------------------------------------------------

D
-0-2-0---0-0-0----0-2-0---0-0-0----0-2-0---0-0-0----0-2-0---0-0-0--
X4
A
-0-2-0---0-0-0----0-2-0---0-0-0----0-2-0---0-0-0----0-2-0---0-0-0--

D
-0-2-0---0-0-0----0-2-0---0-0-0----0-2-0---0-0-0----0-2-0---0-0-0--



Bridge 1:
e
----------------------------------------------------------------

B
----------------------------------------------------------------

G
-13-13-13-13-------13-13-13-13-----13-13-13-----13-13-13-13-----

D
--------------0-0---------------0------------0---------------0--

A
-11-11-11-11--0-0--11-11-11-11--0--11-11-11--0--11-11-11-11--0--

D
--------------0-0---------------0------------0---------------0--


e
----------------------------------------------------------------

B
----------------------------------------------------------------

G
-13-13-13-13---13---13---13-13-13-13-13---13-13-13-13-13--------

D
----------------------------------------------------------------

A
-11-11-11-11---11---11---11-11-11-11-11---11-11-11-11-11--------

D
----------------------------------------------------------------


NOTE: This keeps going on, but just becomes
a completely random pattern. Absolutely no
structure to this part...or this whole song.
What a mess.

e
---------

B
---------

G
---------

D
---------

A
---------

D
-12\-----


Verse 3/Outro:
e
-------------------------

B
-------------------------

G
----------9-9-9-9--5~~---

D
-0-0-0-0-----------------
X10
A
-0-0-0-0--7-7-7-7--3~~---

D
-0-0-0-0-----------------


Outro:
e
-------------------------

B
-------------------------

G
----------9-9-9-9--5~~---

D
-0-0-0-0-----------------
X250,000
A
-0-0-0-0--7-7-7-7--3~~---

D
-0-0-0-0-----------------


Ya...as much as I like that song...it is just a mess.


So, one CD left to go. S/T is next. 
And since I am extremelly disappointed with Rival
Factions, don't expect a tab for that one 
anytime soon. :(

But anyways, God bless. :)
 


/
How To Set Up Higher Praise As Your Home Page
Copyright 1999, Higher Praise HigherPraise,Inc. All rights reserved. Terms of Use

Enjoy A Life Changing Experience

 
 
 
HigherPraise, Higher Praise, HigherPraise, Higher Praise, HigherPraise

Members..Sign Up. LogIn

 
 

Higher Praise Other Sites
 
 

HigherPraise.org/
Praise And Worship
www.higherpraise.org

HigherPraise.net
Christian Resources
www.higherpraise.net

HigherPraiseTube.com
Videos And Audios
www.higherpraisetube.com.


ChristianLyrics.org

Lyrics And Chrords
www.christianlyrics.org

ChristianChordsLyrics

Lyrics And Chrords
www.christianchordslyrics.com

ChristianChordLyrics

Lyrics And Chrords
www.christianchordlyrics.com

WorshipLyrics.org
10.000 Illustrations
www.worshiplyrics.org

WorshipLyrics.net
10.000 Illustrations
www.worshiplyrics.net

PraiseLyrics.com
PowerPoint Lyrics

www.praiselyrics.com

PraiseLyrics.org
PowerPoint Lyrics

www.praiselyrics.org

1GodTube.com
Chistian Videos

www1godtube..com

OneGodTube.com
Chistian Videos

www.onegodtube..com

 

/
Copyright 1999 - 2019, Higher Praise™ HigherPraise™,Inc. All rights reserved. Terms of Use