Higher Praise - Guitar Chords, Lyrics  GuitarTabs -  Praise nad Worship Music And Christian Songs

Higher Praise - Guitar Tabs, Guitar Chords, Lyrics
   Lyrics, Chords And Tabs
   Popular Lyrics Chords Tab
   Power Point Lyrics
   Praise & Worship Music
   Christian Music Videos
   15900 Videos & Audios
   Midi Files
   Worship Questions
   Christmas Chords, Lyrics
   Lyrics, Chords Tabs Rated

Sermon Outlines And Audio Sermons
   9344 Sermon Outlines
   N.T. Sermon Outlines
   O.T. Sermon Outlines
   Special Guest Outlines
   10.000 Illustrations
   Sunday School Studies
   Bible College Studies
   Greatest Preachers
   Bible Research Tools
Audio Sermons
   2895 Audio Sermons
   85 Sermon Videos
   291 Special Guests Serm

   Complete Audio Bible
Higher Praise Sunday School Teaching
   Children's NT Studies
   Children's OT Studies

   98 Children's Midis
   Gospel For Kids Movie
   Children's JESUS Film
Higher Praise Christian Video Library ,Videos
   Christian Television
   TBN TV Live
   15,000 Videos - HP Tube
   712 Youth Music Vids
  Christian Video Library
   Praise Videos #1 & #2
   85 Sermon Videos
   Prophecy Film -Videos
   JESUS Film -Video
   Childrens JESUS Film
   Gospel For Kids Movie
   Passion Of The Christ
   Noah, Sodom, Sinai, Ark
   Tsunami Videos Photos
News And Information
   Testimonies
   Submit Lyrics, Tabs, Serm
   10.000 Illustrations
   Bible College Course
   Clipart & Web Graphics
   Greatest Preachers
   Complete Talking Bible
   Christian Chat Rooms
   Links Church Resource
   HP Statement Of Faith
Download Clipart
   Audio Sermons
   Clipart & Web Graphics
   Church Administration
   Bible Study Software
   Screen Savers Software
   Verse A Day Software
   Educational Games
   Trade Center Photos

   Soft. Search Engine
Higher Praise News
   Current News
    Archived News
   Submit News
   Newsletter   Higher Praise Interact Prayer
   Prayer For All Needs
   
Submit Lyrics, Sermons
   
Contact Higher Praise
   
Advertising 
   Privacy Policy
//
He Died For You,  Click For Answer! This Is Who Jesus Is Video

'
 
0-9 A B C D E F G H I J K L M N O P Q R S T U V W X Y Z
.

//
Click For Printable...Version Of This File
 

Eternal


by Pod




~~~~~~~~~~~~~~~~~~~~~~~~~~~~~~~~~~~~~~~~~~~~~~~~~~~~~~~~~~~~~~~~~~~~
                          POD - Eternal
~~~~~~~~~~~~~~~~~~~~~~~~~~~~~~~~~~~~~~~~~~~~~~~~~~~~~~~~~~~~~~~~~~~~


Solo Guitar (Standard Tuning (EADGBe))
Rhythm 1 (Full Step Down (DGCFAD))
Rhythm 2 (Full Step Down (DGCFAD))


...:::SOLO GUITAR:::...

E
------------------
------------------
------------------

B
------------------
------------------
------------------

G
------------------
------------------
------------------

D
------------------
------------------
------------------

A
------------------
------------------
------------------

E
------------------
------------------
------------------



--------------------
------------------
------------------

--------------------
------------------
------------------

--------------------
------------------
------------------

--------------------
------------------
------------------

----------------10b-
------------------
------------------

--------------------
------------------
------------------



---------------------
--------------------------
------------------------

---------------------
----------------3----1----
------------------------

---------------------
--2----0------------------
--3----2----------------

--------0----2----3--
--------------------------
------------------------

---------------------
--------------------------
------------------------

---------------------
--------------------------
------------------------



------------------
-------------------
--------------------

------------------
-------------------
-----------------6--

------------------
--5b---------------
--------------7-----

------------------
-------------------
--------------------

------------------
-------------------
--------------------

------------------
-------------------
--------------------



--------------------
------------------------
--------------------

--5h-------6--------
--------------8--6--10--
--8--------6--------

--------------------
------------------------
--------------------

--------------------
------------------------
--------------------

--------------------
------------------------
--------------------

--------------------
------------------------
--------------------



------------------------
-------------------
--------------------

--------------8--6--10--
--8~---------------
----------------6p5-

------------------------
-------------------
--------------------

------------------------
-------------------
--------------------

------------------------
-------------------
--------------------

------------------------
-------------------
--------------------



-------------------------
-------------------
---------------------

--6~---------------------
-------------------
-------------5--6----

---------------5---------
--7~---------------
----------7----------

--------------------7----
-------------------
---------------------

-------------------------
-------------------
---------------------

-------------------------
-------------------
---------------------



---------------------
------------------
-----------------------

--5------------------
------------------
-----------------6--5--

-----7---------------
------------------
--------5--------------

--------7------------
------------------
-----------------------

---------------------
------------------
-----------------------

---------------------
------------------
-----------------------



---------------------------
--------------------
--------------------

---------------6----8--10--
--6h-----8~---------
--------13~---------

--7~-----------------------
--------------------
--------------------

---------------------------
--------------------
--------------------

---------------------------
--------------------
--------------------

---------------------------
--------------------
--------------------



------------------
------------------------
--10-------------------------------

------------------
------------10--13~-----
----------13p10-------10-----------

------------------
--------10--------------
----------------12-------12p10-----

------------------
------------------------
-------------------------------12--

------------------
------------------------
-----------------------------------

------------------
------------------------
-----------------------------------



---------------------------------
----------------------
------------------

---------------------------------
----------13r---------
------------------

-------10------------------------
----------------------
------------------

----------12p10------------------
----------------------
------------------

----------------12-10------12p10-
--12------------------
------------------

---------------------------------
----------------------
------------------



--13----------15--17----
--20----------17~-----
------------15~-----

------------------------
----------------------
--------------------

------------------------
----------------------
--------------------

------------------------
----------------------
--------------------

------------------------
----------------------
--------------------

------------------------
----------------------
--------------------



--------14~-------10------
--10----------------
--------13~-------10------

----------------------12--
--------------------
----------------------13--

--------------------------
--------------------
--------------------------

--------------------------
--------------------
--------------------------

--------------------------
--------------------
--------------------------

--------------------------
--------------------
--------------------------



--10--------------------------------------------
---------------------------

------13p-10----------13p-10--------------------
-------------------10--12--

--------------12p-10----------10----------------
------------7--11----------

----------------------------------12p-10h-12----
--------7-9----------------

------------------------------------------------
---------------------------

------------------------------------------------
---------------------------



----------------------------
--------------------------------------

--15b-----15--17p---15--17--
--17r---15----17b---17r---15----17----

----------------------------
--------------------------------------

----------------------------
--------------------------------------

----------------------------
--------------------------------------

----------------------------
--------------------------------------



----------------------------
--------12~---------

--17r---15--17--17~-----15--
--------------------

----------------------------
--------------------

----------------------------
--------------------

----------------------------
--------------------

----------------------------
--------------------



----12~---10------------------
------------------
------------------

--------------13--------------
------------------
------------------

------------------12--10--12~-
------------------
------------------

------------------------------
------------------
------------------

------------------------------
------------------
------------------

------------------------------
------------------
------------------



--12~---------------
--12~-----10/---5----8--
------------6~-----

--------------------
------------------------
-------------------

--------------------
------------------------
-------------------

--------------------
------------------------
-------------------

--------------------
------------------------
-------------------

--------------------
------------------------
-------------------



------------------
------------5--------
--------------------

------------------
---------------5-----
--------------------

------------------
------------------7--
--------------------

------------------
---------------------
--------------------

------------------
---------------------
--------------------

------------------
---------------------
--------------------



----------------------
---------------------------
--------------------------

----------------------
-------10------------------
--------------------------

----------------10----
----12----10~---------10p9-
--------------------------

------------10--------
---------------------------
--12-----10---------------

----------------------
---------------------------
------------12-10---------

----------------------
---------------------------
--------------------------



------------5--------
--------------------
----------------------

---------------5-----
--------------------
-------------------6--

------------------7~-
--------------------
------------5---------

---------------------
--------------------
--------5h7-----------

---------------------
--------------------
----------------------

---------------------
--------------------
----------------------



-------5---------------
----------------------
--------------------

----8-----6~-----------
----------------------
--------------------

-----------------------
--------------12p-10--
--------------------

-----------------------
----------------------
--12~---------------

-----------------------
----------------------
--------------------

-----------------------
----------------------
--------------------



-------------------
------------8p5--8--10--10p8--13p

-------------------
------5h6h8----------------------

----------------3h-
--5h7----------------------------

-------------------
---------------------------------

-------------------
---------------------------------

-------------------
---------------------------------



--10--13----15p-13--15p-13--15--17p-15--20p-
--17~---------------

--------------------------------------------
--------------------

--------------------------------------------
--------------------

--------------------------------------------
--------------------

--------------------------------------------
--------------------

--------------------------------------------
--------------------



----17p---14------------
----17p-13-----------------------13-17p13-

--------------15~-------
------------15~---13-------13-17----------

------------------------
------------------------14----------------

------------------------
---------------------15-------------------

------------------------
------------------------------------------

------------------------
------------------------------------------



-------------------------------------------------------13-17p13-

--15-13---------------------------------------------13----------

--------14/12-10h12-10------------------------14----------------

-----------------------0-10----------------12----15-------------

-------------------------10-12----------12----------------------

-------------------------------13p12-12-------------------------



--15~---------------------
--15------15------------------------

--------------18--15--18--
-----18b-------18b--18-15-18--18-15-

--------------------------
------------------------------------

--------------------------
------------------------------------

--------------------------
------------------------------------

--------------------------
------------------------------------



----------------------
------------------------
-------------------------

--18~---------18------
------------16p-15------
--15----------10p8-10----

----------------------
--------------------17--
-------------------------

----------------------
------------------------
-------------------------

----------------------
------------------------
-------------------------

----------------------
------------------------
-------------------------



---------------------------
------------------
------------------

---------------------------
------------------
------------------

--9p7-9--------------------
------------------
------------------

-----------7p5-7----5p3-5--
------------------
------------------

---------------------------
------------------
------------------

---------------------------
------------------
------------------



--------------------
--------------------
------------------

--11r---------------
--11r---------------
------------------

--------------------
--------------------
------------------

--------------------
--------------------
------------------

--------------------
--------------------
------------------

--------------------
--------------------
------------------



--------------------
----------------------
-------------------

--------------------
----------------------
-------------------

--12----------------
--11------------11/---
--7----------------

--------------------
----------------------
-------------------

--------------------
----------------------
-------------------

--------------------
----------------------
-------------------



---------------------
-------------------
---------------------

---------------------
-------------------
---------------------

----------7/---10/---
--5----------------
--7--------12/-------

---------------------
-------------------
---------------------

---------------------
-------------------
---------------------

---------------------
-------------------
---------------------



-------------------
----------------------
------------------

-------------------
----11------------11b-
------------------

--5----------------
----------------------
------------------

-------------------
----------------------
------------------

-------------------
----------------------
------------------

-------------------
----------------------
------------------



--------------------
-----------------------
----------------------

--------------------
-----------------------
----------------------

--12----------------
--11------------11/-7/-
----10------------10/-

--------------------
-----------------------
----------------------

--------------------
-----------------------
----------------------

--------------------
-----------------------
----------------------



-------------------
----------------------
-------------------

-------------------
----------------------
-------------------

--7----------------
--10--------------12/-
--5----------------

-------------------
----------------------
-------------------

-------------------
----------------------
-------------------

-------------------
----------------------
-------------------



--------------------
-----------5b-------
------------------
------------------

--------------------
--------------------
------------------
------------------

--7--------------3--
--2--------2b-------
------------------
------------------

--------------------
--------------------
------------------
------------------

--------------------
--------------------
------------------
------------------

--------------------
--------------------
------------------
------------------



----------------------------
---------------------
------------------

----------------------------
---------------------
------------------

--2---3-3-5-5-7/5/7-10------
----------------9h10-
------------------

----------------------------
---------------------
------------------

----------------------------
---------------------
------------------

----------------------------
---------------------
------------------



------------------
------------------
--------------------
------------------

------------------
------------------
--------------------
------------------

------------------
------------------
--------------------
------------------

------------------
------------------
--------------------
------------------

------------------
------------------
--------------------
------------------

------------------
------------------
--------------------
------------------



--------------------
------------------
------------------
--------------------

----------------10~-
------------------
------------------
--10~---------------

--------------------
------------------
------------------
--------------------

--------------------
------------------
------------------
--------------------

--------------------
------------------
------------------
--------------------

--------------------
------------------
------------------
--------------------



------------------
---------------------
------------------

------------------
--------10/-8~-------
------------------

------------------
---------------------
------------------

------------------
---------------------
------------------

------------------
---------------------
------------------

------------------
---------------------
------------------



--------------------
------------------
---------------------

--------8/-6~-------
------------------
---------------------

--------------------
------------------
--------2--3----2----

--------------------
------------------
---------------------

--------------------
------------------
---------------------

--------------------
------------------
---------------------



------------------
---------------------
------------------

------------------
---------------------
------------------

------------------
--2--3--2------------
------------------

------------------
---------------------
------------------

------------------
---------------------
------------------

------------------
---------------------
------------------



--------------------------
-------------------------
--------------------------

--------------------------
-------------------------
--------------------------

----------2p0-2h5p2p0-2h5p
--2p0-2h5p2p0-2----------
----------2p0-2h5p2p0-2h5p

--------------------------
-------------------------
--------------------------

--------------------------
-------------------------
--------------------------

--------------------------
-------------------------
--------------------------



-------------------------------
--------------------------

-------------------------------
--------------------------

--2p0-2h5p2p0-2h5p2p0-2h5p2----
----------2p0-2h5p2p0-2h5p

-------------------------------
--------------------------

-------------------------------
--------------------------

-------------------------------
--------------------------



---------------------------
--------------------------

---------------------------
--------------------------

--2p0-2h5p2p0-2p0-2--------
--------------------------

---------------------------
--0-0-0-0-0-0-0--0--------

---------------------------
--------------------------

---------------------------
--------------------------



-------------------------
-------------------------
-----------------------

-------------------------
-------------------------
-----------------------

-------------------------
-------------------------
-----------------------

----0-0-0-0--------------
-------------------------
------3-----5-----7----

------------3-0-3--------
--3h5-5-5-5-5-5----------
---------5-----5-------

-------------------------
-------------------------
-----------------------



---------------------
---------------------
-------------------

---------------------
---------------------
-------------------

---------------------
---------------------
-------------------

---------5-----------
---------3-----------
-------------------

--5-----------5------
----3---------3------
----5--------------

---------------------
---------------------
-------------------



------------------------
----------------------
------------------------

------------------------
----------------------
------------------------

--------------12b-10-12-
----------------------
----------12b---10--12--

------------------------
--12------10----------
------------------------

------------------------
----------------------
------------------------

------------------------
----------------------
------------------------



------------------------------
------------------------------

------------------------------
------------------------------

--10~-------------------------
--10~-------------------------

--------12--10--12----10--12--
--------12--10--12----10--12--

------------------------------
------------------------------

------------------------------
------------------------------



------------------------------
------------------------------

------------------------------
------------------------------

--10~-------------------------
--10~-----------12----10------

--------12--10--12----10--12--
--------12--10------------12--

------------------------------
------------------------------

------------------------------
------------------------------



------------------------------
------------------------------

------------------------------
------------------------------

--10~-------------------------
--10~-------------------------

--------12--10--12----10--12--
--------12--10--12----10--12--

------------------------------
------------------------------

------------------------------
------------------------------



---------------------------------------
-----------13-----13-15-15b-15r-----

---------------------------------------
--------13----15--------------------

--10~----------------------------------
--12/14-----------------------------

--------12--x--------12h15p12----12h15-
------------------------------------

---------------12h15----------15-------
------------------------------------

---------------------------------------
------------------------------------



------------------
--------15r-13--15~-----
------------------

------------------
------------------------
------------------

------------------
------------------------
------------------

------------------
------------------------
------------------

------------------
------------------------
------------------

------------------
------------------------
------------------



--13p12-13p12---------------------
------0--------------12-13-17p13----------

--------------15p13-15-----15/----
------------------13-------------15-13----

----------------------------------
---------------14----------------------14-

----------------------------------
------------15----------------------------

----------------------------------
------------------------------------------

----------------------------------
------------------------------------------



--------------------------12-13h17p13-------------------------------------------
-----------------------13-------------15-13----------------------------------13-
--------------------14----------------------14-14----------------12-14----14----
--15-14-14-12h14-15-------------------------------15-15-15p14p12-------15-------
--------------------------------------------------------------------------------
--------------------------------------------------------------------------------


--12-13h17p13-------------------------------12-13h17p13-15~--

--------------15-13----------------------13------------------

--------------------14----------------14---------------------

-----------------------15-15-14-12-15------------------------

-------------------------------------------------------------

-------------------------------------------------------------



------13--------17-20p17----
--17------------17-20p17----

-------------------------20-
-------------------------20-

-------------------------0--
----------------------------

----------------------------
----------------------------

----------------------------
----------------------------

----------------------------
----------------------------



--17----20b-20~-----17-20-17----
--17--------------17-20-17----

-----------------------------20-
---------------------------20-

--------------------------------
------19----------------------

--------------------------------
------------------------------

--------------------------------
------------------------------

--------------------------------
------------------------------



--17----20b-20~-----17h20p17----
--17-------------17----17-----

-----------------------------20-
------------------------------

--------------------------------
------19------------19----19--

--------------------------------
------------------------------

--------------------------------
------------------------------

--------------------------------
------------------------------



-----17----17----17----17----17----17----17----17-

--------------------------------------------------

--19----19----19----19----19----19----19----19----

--------------------------------------------------

--------------------------------------------------

--------------------------------------------------



---------15----15----15----15----15--------13-

----------------------------------------------

--19--17----17----17----17----17----17/-14----

----------------------------------------------

----------------------------------------------

----------------------------------------------



-----13----13--------12----12----12--------10-

----------------------------------------------

--14----14----14/-12----12----12----12/-10----

----------------------------------------------

----------------------------------------------

----------------------------------------------



-----10----10----10----10----10----10----10----8-

-------------------------------------------------

--10----10----10----10----10----10----10----10---

-------------------------------------------------

-------------------------------------------------

-------------------------------------------------



----8---8------5---5---5---5---5-
---------------------
---------------------

---------------------------------
------------------8--
-----------------10--

--9---9---9/-7---7---7---7---7---
---------------------
--------------0------

---------------------------------
--8------------8-----
---------------------

---------------------------------
---------------------
---------------------

---------------------------------
---------------------
---------------------



----------------------
--------------------
----------------------

--------8---------10--
---------8----------
-----------------5----

----------------------
--------------------
--7------5------------

---------------8------
------8-------------
--7-----------5-------

----------------------
--------------------
--5-------------------

----------------------
--------------------
----------------------



---------------------
--------------------
--8-----8----------------8----8-----

----6-------8~-------
--10~---------------
--10----8----10----8-----8----10----

---------5-----------
--------------------
-------------10----10---------------

---------------------
--------------------
------------------------------------

---------------------
--------------------
------------------------------------

---------------------
--------------------
------------------------------------



--8~---------------
--8-----8---------------------8-----
--8~---------------

--8~---------------
--10----8----8-----------8----10----
--8~---------------

-------------------
--10---------10----10---------------
-------------------

-------------------
------------------------------------
-------------------

-------------------
------------------------------------
-------------------

-------------------
------------------------------------
-------------------



--8-----8----------------8----------
-------------------
-------------------

--10----8----10----8-----8----10----
--8~---------------
-------------------

-------------10----10---------------
-------------------
--9----------------

------------------------------------
-------------------
-------------------

------------------------------------
-------------------
-------------------

------------------------------------
-------------------
-------------------



-------------------
----------------------------

-------------------
----------------------------

--9----------------
--------------2-----5h7p5---

-------------------
---------2------5/7-------7-

-------------------
------5-----5---------------

-------------------
----------------------------



------------------------5-8p5------8-10p8------

------5h6p5-------5h6h8-------8/10--------10-8-

--5-7-------7-6-7------------------------------

-----------------------------------------------

-----------------------------------------------

-----------------------------------------------



-----8h12p8-10p8-------13--12-10------------------------

--10-------------10-8------------13-10h11p10------------

---------------------------------------------12p10-9h10-

--------------------------------------------------------

--------------------------------------------------------

--------------------------------------------------------



----------------------------------------
---------------------

----------------------------------------
---------------------

------10------10-----10-----10------10--
--10-----------------

--12------10------8------7--------------
--7------------------

--------------------------------10------
--8p----7------------

----------------------------------------
---------------------


                       
---------------------
-------------------
----------------------

----------------6----
----------8--------
--11--------10--------

---------7-----------
-------------------
----------------------

------7--------------
-------------------
----------------------

---------------------
-------------------
----------------------

---------------------
-------------------
----------------------





...:::RHYTHM GUITAR 1:::...

D
-------------------------
-----------------------
---------------------

A
--------------x----------
-----------------------
----7----5-----------

F
--x-----------x----------
--x--x----x--x--x------
----7---------5------

C
--x-----------x----------
--x--x----x--x--x------
--------------5------

G
-----x---x-x-----x----x--
-----------------------
---------------------

D
-------------------------
-----------------------
---------------------



----------------------
-----------------------
----------------------

----------------------
-----------------------
----------------------

----------------------
-----------------------
-----------------0----

----------------------
-----------------------
----------------------

----------------5h-7--
-----------------------
---------2----3-------

--------5--7----------
----3/-5----7----0h-2--
----3-----------------



----------0----------
--------------------------
------12------------------

----------0----------
--------------------------
----7------12-------------

-------2-------------
--------------------0-----
---------7----------------

--4------------------
--------------0h-2--------
--------------7-----------

---------------------
--------0h2h3-------------
-----------------------2--

---------------------
-----------------------0--
--------------------------



-----------------------
------12-------------------
-----------------------

-----------------------
----7------12---x----------
-----------------------

-----------------------
---------7-----------------
-----------------------

-----------------------
--------------7------------
-----------------------

----5/-9--7----7/------
------------------7--------
-----------------------

--------------------0--
---------------------------
--5h-7/-10--7----------



-------12-------------------
----------------------

-----7------12--------------
----------------------

----------7------7----------
----------------------

---------------7------------
----------------------

-------------------7--------
--5h-7/-9--7----------

--0-------------------------
----------------------



-------12-------------------
--10h-12----------------
----------0-----------

-----7------12--------------
----------12~-----------
----------0----3------

----------7------7----------
------------------------
----------4----x------

---------------7------------
------------------------
---------------4------

-------------------7--------
------------------------
-------2--------------

--0-------------------------
------------------------
--0-------------------



------------------
---------0----------
----------0-------------

------------------
---------0----------
----------0-------------

------------------
---------0----------
----------0-------------

------------------
---------7----------
----------12------------

------------------
--5------5----------
--10------10--------3p2-

------------------
--3-----------------
--8---------------------



--------------------
---------0-----------
------------------

--------------------
---------0----3------
------------------

---------4----------
---------0----x------
------------------

--------------------
--------------4------
------------------

--0-----------------
---------------------
------------------

--------------------
--0------------------
------------------



---------0------0--0--
---------0-------0-----
---------------------

--0------0------0--0--
---------0-------0--0--
---------------------

--0------0------0--0--
---------0-------0--0--
----------0----------

--7------7------------
---------12------------
-------2-------------

--5-------------------
--3------10------------
--0------------------

--3-------------------
-----------------------
---------------------



----------0-----------
---------------------
--------0-----------

----------0----3------
-------------7-------
--------0-----------

-------0-------x------
--------5----7-------
--------0--------0--

---------------4------
---------------------
--------7--------0--

----------------------
---------------------
--------5-----------

--0-------------------
------------------3--
--------------------



----------0---------------
---------7----5------
----------0-----------

----------0-------x-x-----
---------------------
----------0----7------

----------0-------x-x-----
---------------------
----------0----7------

----------12------x-x-----
---------------------
----------------------

--10------10----------3p2-
--0------------------
-------2--------------

--8-----------------------
---------------------
--0-------------------



-----------------------
----------0------------
-----------------------

-----------------------
----------0------------
-----------------------

-----------------------
----------0----0-------
---------0-------0--0--

-----------------5-----
----------7----7-------
---------12------0--0--

-----------5h-7-----7--
----------5------------
---------10------------

--------7--------------
--3----3----------3/---
--8--------------------



---------------------
---------0--------0--
----------0-------0------

---------------------
---------0--------0--
----------0--0----0--x-x-

---------4-----------
--8------8-----------
-------------8----8--x-x-

--2------2------2----
--6------6-----------
--6----6-----6----6------

--0------0------0----
--4------------------
--4----4-----4----4------

---------------------
---------------------
-------------------------



----------------0--0----
----0----------0-------
--4------4-------4----

----------5-----5--5----
----5-------5--5-------
--5------5-------5----

----------4-----4--4----
-------4----4--4--4----
--6------6----6--6----

-------5--5-----5--5----
-------5----5-----5----
--6------6-------6----

--3----------3-----3----
-------3----3----------
--4------4-------4----

------------------------
-----------------------
----------------------



-------------4----------
--0------0----0--0----
-----0-----0--0----------

----------5--5----------
--5------5----5--5----
-----5-----0--5----------

-----6----6--6----6-----
--4------4-------4----
-----4--------4----------

--6--6----6--6----6--5--
--5------5-------5----
--5-----5-----5----------

--4-------4--4-------3--
--3-------------------
--------------3----3/-7--

------------------------
----------------------
-------------------0-----



-----10--------10-------10--
-----10-----10-------------
--------------------

-----8---------8--------8---
-----8------8--------------
--------------------

-----11--------11-------11--
-----11-----11--x--7--x----
--10----------------

-----9---------9--------9---
-----9------9---x--5--x----
--10----------------

----------------------------
----------------x--3--x----
--8-----------------

--0------0--0--------0------
--0------0-----------------
--8-----------------



---------------------------
----------10------------
-------------------------

---------------------------
----------8-------------
--8---------8------------

---------------5-----------
----------11------------
--11----11--11----7------

--------3--5/7----7--------
----------9-------------
--9-----9---9-----5------

-----5---------------5/-7--
------------------------
------------------3/-----

--1------------------------
--0----0----------0--0--
--0-----0---0------------



-----------------------
------------------
--------0-----------

--12--------------1----
------------------
--------0----3------

--12--------------0----
------------------
--------0-----------

--10------10/-----3----
------------------
-------------4------

--8-------8/-----------
------------------
--------------------

-----------------------
------------------
--------------------



-----------------------
--------------------
---------0------0--0--

-----------------------
--3------3----------
--3------3------3--3--

-----------------------
--0------2----------
--0------0------0--0--

------------2----------
--0------0----------
--2-------------------

--------2h5------------
--x-----------------
--3-------------------

-----------------------
--3-----------------
----------------------



-----------------------
----------0-----------
-------------------------

----------0------------
----------0----3------
-------------------------

------------------2----
-------0--------------
-------------------------

-------2-------2-------
-------2-------4------
------------0h-2---------

--0----0---------------
----------------------
------0h-2---------------

-----------------------
--0-------------------
----------------------3--



--------0----0--0----
-----------0-----0---0-------
------------------------

--------0----0--0----
-----------0-----0---0-------
------------------------

--------0----0--0----
-----------0-----0---0-------
----------4-------2h-4--

--------7-------7----
-----------12----12--12------
-------2--2-------------

--------5-------5----
--10-------10----10--10------
--0------------0--------

----------------3/---
--8-----8------------8---8p7-
------------------------



----------0----------
--------------------7----
----5/-3p-2p-0-----------

-------0--0----------
--------------4h-5-------
----------------0--------

-------8--8----------
-----------6-------------
-------------------0-----

-------6--6----------
--------6----------------
----------------------4--

--4----4-------------
----4h7------------------
-------------------------

---------------------
-------------------------
-------------------------



-----------------------
-------------------0----
--------------------7----

-----------------------
-----------4----4-------
--------------4h-5-------

-----------------------
--------4--4----4-------
-----------6-------------

----------5----4----2--
-----2-----2------------
--------6----------------

--2----3---------------
--4--------4------------
----4h7------------------

-----------------------
------------------------
-------------------------



----5--3--2--------------
--0-----0-----0-----------
---------0-------0----

-------------5--3--0-----
--0-----0-----0-----------
---------0-------0----

----------------------5--
-----5-----5-----2--0-----
---------0-------0----

-------------------------
-----------------------2--
----------------------

-------------------------
--------------------------
----------------------

-------------------------
--------------------------
--0-----------0-------



-----0-----0-------------
-------------------
---------------------------

-----0-----0--0--0----1--
-------------------
---------------------------

-----0-----0--0--5----0--
-------------------
---------------5-----------

--------------2--5----3--
-------------------
--------3--5/7----7--------

--------2-----2--3----3--
-------------------
-----5---------------5/-7--

--0-----0-------------0--
----------------0--
--1------------------------



--------------10-------------
---------------------------
---------------------

-----8--8-----8--------------
---------------------------
----------------1----

-----11-11----11----x--------
--11----11--11----7----12--
----------------0----

-----9--9-----9-----x-----9--
--9-----9---9-----5----10--
--------10------3----

-----------------------------
--7-----7---7-----3----8---
--------8-------3----

--0--------0-----------0-----
--0------------------------
---------------------



------------------
----------------------
----------------------

------------------
---------0---------0--
---------4------4-----

------------------
---------5---------5--
---------6------6--6--

------------------
---------2---------2--
---------6------6--6--

------------------
------0---------0-----
------0---------0-----

------------------
----------------------
----------------------



----------0------------
-----------------------
----------------------

----------0-------0----
----------2--2--2------
----------------------

----------5-------5----
----------1--1--1------
---------5--5--5------

----------2----2--2----
----------2--2--2------
---------2--2--2------

--0----0---------------
--0----0-----0--0------
--0-------------------

-----------------------
-----------------------
----------------------



-----------------------
-----------0----0--0-----
----------2------2----

---------2--2--2-------
-----------0----0--0--0--
-------0--0------0----

---------1--1--1-------
--------0-------0--0--0--
-------0--0------0----

---------2--2--2-------
-----2-------------2--0--
-------0--0------0----

------0--------0----0--
--3----------------3-----
----------------------

-----------------------
-------------------------
--3-------3------3----



----------0----0--0----
--2------2----2--2-----
---------------------

----------3----3--3----
--0------0----0--0--0--
---------------------

-------0--0----0--0----
--0------0----0--0--0--
--------5------------

------------------x----
--0------0-------0-----
-----2---------------

--3---------------3----
-----------------------
--0------------------

-----------------------
--3------3-------3-----
---------------------



---------------------
----------------------
--------------------------

--------2------------
-------------------0--
--------2--2-----2--2-----

---------------------
--------5-------------
--------1--1-----1--1-----

-----2---------------
-----2----------------
-----2-----2--2-----2--2--

--0------------------
--0-------------------
--0--------------------0--

---------------------
----------------------
--------------------------



-----------------------
-------------------------
-----------0------0--0--

--------------------0--
----------2--2--2--2--0--
-----------3------3--3--

--------5--------5-----
----------1--1--1--1--0--
--------0--0------0--0--

-----2-----------------
-----2----2--2--2--2--0--
-----2-----2------2-----

--0--------------------
--0----------0-----0-----
--3--------3------3-----

-----------------------
-------------------------
------------------------



----------2--------2--
----------0-----------
--------------------0--

--0-------0--------0--
----------0------0----
--7-----------------0--

--0-------0--------0--
-------0--0------0----
--7-------4---------0--

--0-------0-----------
----------2-----------
-------4--4------------

----------------------
--3-------3-----------
-----------------------

--3----3--3-----------
----------------------
----------3------3-----



-----------0------------
-----------------------
-----------0------0--0--

-----------0---------0--
--7-----------------0--
-----------3------3--0--

--------0--0------0-----
--7-------4---------0--
--------0--0------0--0--

-----2-----2------2-----
-------4--4------4-----
-----2-----2------2-----

--3--------3------------
-----------------------
--3--------3------3-----

------------------------
----------3------3-----
------------------------



-----------------------
---------------------
----------------------

--0----0--0--0---------
---------------------
--------------3/-5----

--0----0--0--0---------
---------------------
----------------------

--0----0--0--0---------
----------------2----
----4------5--5/-7----

-----------------------
--0------2-----------
----------------------

--3----3--3--3----3----
---------------------
----------------------



-----------------7-------
--------------------
-----------------------

--8--------10-------8----
--------------------
--------8p7p5----7-----

-------------------------
--------------------
--------------------7--

-------10----------------
--------------------
-----------------------

-------------------------
--------------------
-----------------------

-------------------------
--------------------
-----------------------



---------------------
---------------------
-----10-----------------

---------------------
------------7h-8--7h-
--8------8~-------7-----

---------------------
---------------------
---------------------9--

------0--7h-9~-------
---------------------
------------------------

---------------------
---------------------
------------------------

---------------------
---------------------
------------------------



---------------------------
------------5---------
------------------------

--------8p7--------8p7-----
---------7-----7~-----
----5/-3-----0-----3----

------------9p7--------9p7-
----------------------
----------4-----4-------

----------------9----------
--9-------------------
------------------------

---------------------------
----------------------
------------------------

---------------------------
----------------------
------------------------



----------0---------
-----------------------
----------------------

--------------------
-----------------------
----------------------

-------------2------
----0----------0-------
-------------------0--

--------------------
-------2--0-------2----
----------------4-----

--------------------
-----------------------
-------------2--------

--------------------
-----------------------
----------0-----------



-----------------------3--
---------------------------
------------------------

-----------------3/-5-----
--7/---5------------8h-10--
--12--------------12p10-

--------0--2/-4-----------
--------------7--9---------
------------------------

--0h-2--------------------
----------7/9--------------
------------------------

--------------------------
---------------------------
------------------------

--------------------------
---------------------------
------------------------



-----10----------10-----------------
----------0-----------

--12----12p10-12----12p10-12--------
----------0----3------

------------------------------------
----------0-----------

------------------------------------
---------------4------

------------------------------------
--2----2--------------

------------------------------------
--0-------------------



------------------------
------------------0h7p
--0-0-3p0-0-2p0-----0---------

--3--3------3-----------
--3------0------------
----------------2/5-----------

------------0----0------
--0-------------------
------------------------2--0--

--4--4------4-------0h4-
----------------------
------------------------------

------------------------
----------------------
------------------------3--2--

------------------------
----------------------
------------------------------



---------0-----------
-----------------------
----------0----0-----0--

--------------3------
--------3--3--3--3--0--
----------0----0-----0--

---------------------
--------0--0--0--0--0--
----------0----0-----0--

--------------4------
--------4--4--4--4--0--
-------2----------------

---------------------
-----------------------
--2----2----------2-----

--0------------------
-----------------------
--0---------------------



---------------------------
----------0-----------
-----------------------

---------------------------
----------0----3------
-----------------------

--2--0--0------------------
----------0----0------
--0-------0-------0----

-----------0--2--0---------
----------------------
--2-------2-------2----

--------------------2p0----
----------------------
--2-------2-------2----

------------------------3--
--0----0--------------
--0----0--0----0--0----



------------------------
-------------------------
----------0------------

--3-------3-------3-----
-----------0----------0--
----------0----3----3--

--0-------0----0--0-----
-----------0-------0--0--
----------0----0----0--

--0----0--0----0--0--0--
--2--2--2--2----2--2--0--
--------------------2--

------------------------
--3--3--3--3----3--3--0--
--2----2---------------

--3----3--3----3--3-----
--3--3--3--3----3--3-----
--0----0---------------



--------------0-0-----------
---------------------------

-----------3--3-3----3--3-3-
-----3---3----3--3-3-3--0--

-----------0--0-0----0--0-0-
--0--0---0----0--0-0-0--0--

-----------2---------2--2-2-
--0--0---0----0--0-0-0--2--

--2---2-2--2------2---------
------------------------3--

--0---0-0--0------0---------
--3--3-----3--3------3-----



--------0---0-0------0-----
-------------------------

--------0---0-0------0---0-
-------------------------

--------0---0-0------0---0-
-------------------------

---2-2--2-----2--2-2-2-----
--4--4--4--4----5-----4--

---3-3--3-----3--3-3-3-----
--2-----2--2----2-----2--

---3-3--3-----3--3-3-3-----
--0-----0----------0-----



--------------------------
-------------------------
-------------------------

--------------------------
-------------------------
-------------------------

--------------------------
-------------------------
-------------------------

-----5-----4-----5-----5--
--5--5--5--5----5--5--5--
--5--5--5--4----2--2--2--

-----2-----2-----2--2--2--
--3--3--3--2----3--3--3--
--3--3--3--3----3--3--3--

--0-----0-----0-----0-----
-------------------------
-------------------------



--------------------------
-----------------------------

--------------------------
-----------------------------

--------------------------
-----------------------------

--------4--4-----5-----4--
--4-4-5-----4--4-4-5--5--5-5-

-----2--2--2-----2-----2--
--2-2-2--2--2------2--2--3-3-

--0--0--------0-----0-----
---------0---------0--0------



------------------------------
-------------------------------

------------------------------
-------------------------------

------------------------------
-------------------------------

--5--5-5-5--5--5-5-5-5-5--5-5-
--5-5-5--5-5-5-5-5--5-5-5-5-2--

--3--3-3-3--3--3-3-3-3-3--3-3-
--3-3-3--3-3-3-3-3--3-3-3-3-0--

------------------------------
-------------------------------



-------------------------
---------------------------

-------------------------
---------------------------

--5----5--4----5--5-5-5--
---5-5--5--4---5-5--5------

--2----2--2----2--2-2-2--
---2-2--2--2---2-2--2------

--0----0--0----0--0-0-0--
---0-0--0--0---0-0--0--0-0-

-------------------------
-----------------------0-0-



---------------------------
------------------------------

---------------------------
------------------------------

---------------------------
------------------------------

--5---5-5--4---4-4--5--5-5-
--5-5-5---5-5-5-5--5-5-5------

--2---2-2--2---2-2--2--2-2-
--2-2-2---2-2-2-2--2-2-2--0-0-

--0---0-0--0---0-0--0--0-0-
--0-0-----0-0-0-0--0-0-0--0-0-



----------------------------
---------------------------

----------------------------
---------------------------

--5--5-5-5--5---5-5--5--5-5-
--5---5-5--5---5--5-5--0-0-

--2--2-2-2--2---2-2--2--2-2-
--2---2-2--2---2--2-2--0-0-

--0--0-0-0--0---0-0--0--0-0-
--3---3-3--3---3--3-3------

----------------------------
---------------------------



---------------------------
--2---------2------2--2------

--3---3-3--3---3-3--3------
--3---------3------3--3--0-0-

--0---0-0--0---0-0--0--0-0-
--2--2-2-2--2------2--2--0-0-

--4---4-4--4---4-4--4--0-0-
--0--0-0-0--0--0-0-0--0------

--5---5-5--5---5-5--5------
--2--2-2-2--2--2-2-2--2------

--5---5-5--5---5-5--5------
-----------------------------



--0-------0------------
-----0--7--7--7--7--10p7--3-

--0-------0-----3------
----------------------------

--0-------0-----0------
----------------------------

--2-------------4------
----------------------------

--2----2---------------
----------------------------

--0----0-----0---------
--0-------------------------



--7p0--------------------------
--------------------------------

------8p0----------------------
---------------------8--15b-----

----------7h9------7-----------
-----------------7h9--------14r-

---------------7h9-------------
----------5--7/9----------------

---------------------7--7p5----
------5h7-----------------------

----------------------------7--
--5h7---------------------------



----------------------------------
---------14-----12----10--------------

------15b---------15b---------15b-
------15-----12----12----11/10-8-10-8p

--12------14r-12------14r-12------
--------------------------------------

----------------------------------
--------------------------------------

----------------------------------
--------------------------------------

----------------------------------
--------------------------------------



---------------------------------
----------------------------

--7---7h8p7----------------------
----------------------------

----9-------9p7------7-----------
----------------------------

----------------9--9---9/7-5-7-5-
------5------------------2--

---------------------------------
--7-5----7---------2--5-----

---------------------------------
-----------5/3--5-----------



                                                              
-------------------
---------------------
-------------------

-------------------
---------------------
-------------------

-------------------
---------------------
-------------------

--4----------------
--4--------4------5--
--5----------------

-------------------
---------------------
-------------------

-------------------
---------------------
-------------------



                                                               
--------------------
-------------------
---------------------

--------------------
-------------------
------------------5--

--------------------
--7----------------
--7--------7---------

--5------------4----
--4----------------
--4--------4------5--

--------------------
-------------------
---------------------

--------------------
-------------------
---------------------



--------------------
-----------------------
------------0---------------

--5--------7--------
--8--------8----8------
-----0-0----0---------------

--------------------
-----------------------
-----0-0----0---------------

--5--------7--------
--9--------9----9------
-----2-2----2---------------

--------------------
-----------------------
--2------------2-2--2-2---2-

--------------------
-------------------0-0-
--0------0-----0-0--0-0---0-



---------------------------
--0----0----0----0-----0------

---------------------------
--0----0----0----0-----0------

---------------------------
--0----0----0----0-----0------

---------------------------
--2----2----2----2-----2------

--2---2-2--2---2--2-2--2-2-
--3--3---------3---3-3----3-3-

--0---0-0--0---0--0-0--0-0-
--0--0----0----0---0-0----0-0-



--0----0-----0--0-0-0--0------
------------------14----------12------

--0----0-----0--0-0-0--0------
------------------0------0--0-0-------

--0----0-----0--0-0-0--0------
------------------0------0--0-0-------

--2----2-----2--2-2-2--2------
--------------------------------------

--3--3---3-3----3-3-3--3------
--14--14-14-14-14-----14--------------

--0--0---0-0--------------0-0-
--0---0--0--0--0------0-----------0-0-



-------------------------------
-----------------------------------

-------------------------------
-----------------------------------

-------------------------------
-----------------------------------

-------------------------------
-----------------------------------

--5--5-5-5-5-12-12--9--9-9-----
--10--10-10-10-10-10/--7--7-7--7-7-

--0--0-0-0-0-0--0---0--0-0--0--
--8---8--8--8--8--8/---5--5-5--5-5-



----------------------------
-----------0------------

----------------------------
--x---------------------

----------------------------
--x---------------------

----------------------------
--x---------------------

--9--9-9-9-9-5---5-5-5-7----
--------2----------2----

--7--7-7-7-7-3---3-3-3-5----
-----0----------0-------



-------0------0-------0------0-
--------0-------0-------0-------0-

----------0-------0------0-----
----0-------0-------0-------0-----

------------0-------0------0---
------0-------0-------0-------0---

-----2----------2--------------
--2-------2-------2-------2-------

-------------------------------
----------------------------------

--0----------------------------
----------------------------------



--------0-------0-------0-------0-
-----7--------------------

----0-------0-------0-------0-----
--------7-----------------

------0-------0-------0-----------
-----------7--------------

--2-------2-------2-------2---0---
--------------7-----------

----------------------------------
-----------------7-----2--

----------------------------------
--0-----------------7-----



--------------------------
------12------12-10-------
------------------

--------------------------
------12------------------
------------------

-----------2--------------
------12------------------
------------------

-----2--4-----5--4--------
------12------------------
------------------

--5-----------------2--5--
--------------------------
------------------

--------------------------
--12----------------------
------------------



------------------

------------------

------------------

------------------

------------------

------------------





...:::RHYTHM GUITAR 2:::...

D
------------------
-------------------------
--------------------------

A
------------------
--x----x-----7--x--x--x--
--0--x--x--x--7--x--x--x--

F
------------------
--x----x--5-----x--x--x--
--x--x--x--x-----x--x--x--

C
------------------
----------0--------------
--------------------------

G
------------------
-------------------------
--------------------------

D
------------------
-------------------------
--------------------------



--------------------------
--------------------------

--7--x--7-----7--x--x--x--
--7--x--x--x--7--x--x--x--

--x--x-----x--x--x--x--x--
-----x--x--x--7--x--x--x--

-----------x--0-----------
--------------------------

--------------------------
--------------------------

--------------------------
--------------------------



--------------------------
--------------------------

--7--x--x--x--7--x--x--x--
--7--x--x--x--7--x--x--x--

-----x--x--x--x--x--x--x--
--x--x--x--x-----x--x--x--

--------------0-----------
--0-----------------------

--------------------------
--------------------------

--------------------------
--------------------------



--------------------------
--------------------------

--7--x--x--x--7--x--x--x--
--7--x--x--x--7--x--x--x--

-----x--x--x-----x--x--x--
-----x--x--x-----x--x--x--

--------------------------
--------------------------

--------------------------
--------------------------

--------------------------
--------------------------



--------------------------
--------------------------

--7--x--x--x--7--x--x--x--
--7--x--x--x--7--x--x--x--

-----x--x--x-----x--x--x--
-----x--x--x-----x--x--x--

--------------------------
--------------------------

--------------------------
--------------------------

--------------------------
--------------------------



--------------------------
--------------------------

--7--x--x--x--7--x--x--x--
--7--x--x--x--7--x--x--7--

-----x--x--x-----x--x--x--
-----x--x--x-----x--x-----

--------------------------
--------------------------

--------------------------
--------------------------

--------------------------
--------------------------



--------------------------
--------------------------

--7--x--x--x--7--x--x--7--
--7--x--x--x--7--x--x--x--

-----x--x--x-----x--x-----
-----x--x--x-----x--x--x--

--------------------------
--------------------------

--------------------------
--------------------------

--------------------------
--------------------------



--------------------------
----------0-----------
-----------0-----------

--7--x--7--x--7--x--7--x--
----------0----3------
--------------3--------

-----x-----x-----x-----x--
----------4----x------
--------0--------0-----

--------------------------
---------------4------
--------------------0--

--------------------------
-------2--------------
-----------------------

--------------------------
--0-------------------
-----------------------



----------0------0-----
-----------0--------------
------------------------

----------0------0-----
-----------0-----------0--
------------------------

----------0------0-----
-----------0-----------0--
------------------------

----------7------7-----
-----------12------12-----
----------9-------7/-9--

----------5------------
-------10----------10-----
-------7-------7--------

--3----3------------3/-
--8----8------------------
--5---------------------



----------0-----------
-----------0-----------
----------0------------

----------0----3------
--------------3--------
----------0------------

----------0----x------
-----------------0-----
----------0------------

---------------4------
--------4-----------0--
----------7------7--0--

-------2--------------
-----------------------
-------5--5------5--0--

--0-------------------
-----------------------
--3----3---------3-----



------------0-------0---0--
------------------------
----------0-----------

------------0-------0---0--
------------------------
----------0----3------

------------0-------0---0--
------------------------
----------0----x------

------------12------12-----
----------9-------7/-9--
---------------4------

--10----10-----------------
-------7-------7--------
-------2--------------

--8-----8------------------
--5---------------------
--0-------------------



-----------0-----------
----------0------------
------------0-------0---0--

--------------3--------
----------0------------
------------0-------0---0--

-----------------0-----
----------0------------
------------0-------0---0--

--------4-----------0--
----------7------7--0--
------------12------12-----

-----------------------
-------5--5------5--0--
--10----10-----------------

-----------------------
--3----3---------3-----
--8-----8------------------



------------------------
----------0-----------
-----------0-----------

------------------------
----------0----3------
--------------3--------

------------------------
----------0----x------
-----------------0-----

----------9-------7/-9--
---------------4------
--------4-----------0--

-------7-------7--------
-------2--------------
-----------------------

--5---------------------
--0-------------------
-----------------------



----------0------------
------------0-------0---0--
------------------------

----------0------------
------------0-------0---0--
------------------------

----------0------------
------------0-------0---0--
------------------------

----------7------7--0--
------------12------12-----
----------9-------7/-9--

-------5--5------5--0--
--10----10-----------------
-------7-------7--------

--3----3---------3-----
--8-----8------------------
--5---------------------



----------0------0--0--
----------0--------------
----------0------0--0--

----------0------0--0--
----------0-----0--0--0--
----------5------5--0--

----------4------4--4--
--4----4--4-----4--4--0--
----------4------4-----

----------6------6--6--
--6----6--6-----6--6-----
-------5--5------5-----

--4----4---------------
--4----4-----4-----4-----
--3----3---------------

-----------------------
-------------------------
-----------------------



-----0--------0-----------
----------0---------0--
--0-------0--0--0--------

-----0-----------5--------
----------0---------0--
--0-------0--0--0--------

--------4-----------4-----
----------4------4--4--
--4-------4--4--4--4-----

--5--------5--------5-----
-------6--6------6-----
--6----6-----6-----6--5--

-----------------------3--
--4----4--4------4-----
--4----4-----4-----4--3--

--------------------------
-----------------------
-------------------------



----------0------0--0--
--0--0--0--0--0--0-------
----------------------

-------5--5------5--5--
--5--5--5--5--5--5-------
--7------7------------

-------4--4------4--4--
--4--4--4-----4--4-------
--4------4---------4--

-------5--5------5--5--
--5--5--5-----5--5-------
--5----------------5--

--3--------------------
--------------------7----
--7----------------7--

-----------------------
--------------------0----
--0-------------0--0--



-------------------------
-------------------
---------------------------

--5----7--7--x-----------
-------------------
---------------------------

--4----4--4--x--7--x-----
-------------------
---------------5-----------

--5----5--5--x--5--x-----
-------------------
--------3--5/7----7--------

--x----x--x-----3--x--3--
-------------------
-----5---------------5/-7--

--0----0--0-----------1--
----------------0--
--1------------------------



-----------------------
-------------------------
----------------0----

----------7------------
--7-------7--------------
----------------1----

----------7------7--7--
--7----7--7--x--7----12--
--------10/-----0----

----------5------5--5--
--5----5--5--x--5----10--
--------10/-----3----

----------7------------
--7-------7-----3----8---
--------8/------3----

--0----0---------------
--0----------------------
---------------------



-------------------
----------0----0------
-------------0-----------

-------------------
----------0----3------
----------------3--------

-------------------
----------0-----------
-------------------0-----

-------------------
---------------4------
----------4-----------0--

----------------0--
-------2--------------
-------------------------

-------------------
--0-------------------
-------------------------



----------0------------
-----------0--------------
------------------------

----------0------0--0--
-----------0-----------0--
------------------------

----------0------0--0--
-----------0-----------0--
------------------------

----------7------------
-----------12-------------
----------9-------7/-9--

-------5--5------------
-------10--10------10-----
-------7-------7--------

--3----3---------------
--8----8-----------8------
--5----5----------------



                                                                         
----------0----0------
-------------0-----------
----------0------------

----------0----3------
----------------3--------
----------0------0--0--

----------0-----------
-------------------0-----
----------0------0--0--

---------------4------
----------4-----------0--
----------7------------

-------2--------------
-------------------------
-------5--5------------

--0-------------------
-------------------------
--3----3---------------



-----------0--------------
------------------------
----------0------0--0--

-----------0-----------0--
------------------------
----------0------0--0--

-----------0-----------0--
------------------------
----------4------4--4--

-----------12-------------
----------9-------7/-9--
----------6------6--6--

-------10--10------10-----
-------7-------7--------
--4----4---------------

--8----8-----------8------
--5----5----------------
-----------------------



----------0--------------
----------0------0--0--
-----0--------0-----------

----------0-----0--0--0--
----------5------5--0--
-----0-----------5--------

--4----4--4-----4--4--0--
----------4------4-----
--------4-----------4-----

--6----6--6-----6--6-----
-------5--5------5-----
--5--------5--------5-----

--4----4-----4-----4-----
--3----3---------------
-----------------------3--

-------------------------
-----------------------
--------------------------



----------0---------0--
--0-------0--0--0--------
----------0------0--0--

----------0---------0--
--0-------0--0--0--------
-------5--5------5--5--

----------4------4--4--
--4-------4--4--4--4-----
-------4--4------4--4--

-------6--6------6-----
--6----6-----6-----6--5--
-------5--5------5--5--

--4----4--4------4-----
--4----4-----4-----4--3--
--3--------------------

-----------------------
-------------------------
-----------------------



--0--0--0--0--0--0-------
----------0------------
----------0--------------

--5--5--5--5--5--5-------
--7-------7------7--7--
--7----7--7-----------1--

--4--4--4-----4--4-------
--7-------7------7--7--
--7----7--7--x--7--x--0--

--5--5--5-----5--5-------
--5-------5------5--5--
--5----5--5--x--5--x--3--

--------------------7----
--7----7---------7-----
--7----7-----x--3--x--3--

--------------------0----
--0----0---------0-----
--0----0--------------0--



-------------------
---------------------------
----------------------

-------------------
---------------------------
----------7--------7--

-------------------
---------------5-----------
----------7--------7--

-------------------
--------3--5/7----7--------
----------5--------5--

-------------------
-----5---------------5/-7--
----------7--------7--

----------------0--
--1------------------------
--0----0-----------0--



--------------------------
----------------0----
------------------

--7-------7---------------
----------------1----
------------------

--7-------7--x--7--x--12--
--------10/-----0----
------------------

--5----5--5--x--5--x--10--
----------------3----
------------------

--7----7--7--x--3--x--8---
----------------3----
------------------

--0----0--0-----------8---
---------------------
------------------



-----------0-----------0--
----------0------0--0--
-----------0--------------

-----------7-----------0--
----------4------4--0--
-----------7-------7---0--

-----------9-------9------
----------6------6-----
-----------9-------9---0--

-------10--10------10-----
-------6--6------6-----
-------10--10------10-----

--0----0-----------0------
--0----0---------0-----
--0----0---0-------0------

--------------------------
-----------------------
--------------------------



----------0------0--0--
-----------0-------0---0--
----------0---------0--

----------4------4--0--
-----------7-------7---0--
----------4------4--0--

-------6--6------6-----
-----------9-------9------
----------6------6-----

-------6--6------6-----
-------10--10------10-----
-------6--6------6-----

--0----0---------------
--0----0------------------
--0----0---------0-----

-----------------------
--------------------------
-----------------------



-------------2--2--2--0--
----------2-----2--2--0--
----------2-----2--2--0--

----------3--3--3--3--0--
----------3-----3--3--0--
----------3--3--3--3--0--

----------0--0--0--0--0--
-------0--0--0-----0--0--
-------0--0--0--0--0-----

-------------------------
-------0-----0-----0-----
-------------------------

--3----3-----------3-----
-------------------------
--3----3-----3-----3-----

-------------------------
--3----3-----------3-----
-------------------------



--0-------2-----2-----0--
-----------0-------0---0--
----------0---------0--

--3-------3--3--3-----0--
-----------7-------7---0--
----------4---------0--

--0----0--0--0--0--0-----
-----------9-------9------
----------6------6-----

--0----0--0--0-----0-----
-------10--10------10-----
-------6--6------6-----

-------------------------
--0----0------------------
--0----0---------------

--3----3-----3-----3-----
--------------------------
-----------------------



-----------0----------0--
-----------------0--0--
-----------0-----------0--

-----------7-----8/---0--
-------4--4------4--0--
-----------7-----------0--

-----------9-----9-------
-------6--6------6-----
-----------9-------9------

-------10--10------------
--6-------6------6-----
-------10--10------10-----

--0----0-----------------
--0-------0------0-----
--0----0-----------0------

-------------------------
-----------------------
--------------------------



----------0------0--0--
-----------2---------2--
-----------2------2--2--

-------4--4------4--0--
-----3-----3------3--3--
-----3-----3------3--3--

-------6--6------6-----
-----------0------0-----
--------0--0------0-----

-------6---------6-----
--------4--4------4-----
--------0---------------

--0--------------0-----
--3--------3------3-----
------------------------

-----------------------
------------------------
--3---------------------



-----------2------------
-----------2---------2--
-----------2------2--2--

-----3--3--3------3--3--
-----3-----3---------3--
-----3-----3------3--3--

-----0--0--0------0--0--
--------0--0------0-----
-----0--0--0------0-----

-----4-----4------4-----
--------4--4------4-----
--4-----4--4------4-----

--3---------------3-----
------------------------
--3-----3---------------

------------------------
--3--------3------------
------------------------



-----------2---------0--
-----------2---------2--
-----------2---------2--

-----3-----3------3--0--
-----3-----3------3--3--
-----3------------3--3--

--------0--0------0-----
--------0--0------0-----
--------0---------0-----

--------4--4------4-----
--4-----4--4------4-----
--------4---------4-----

------------------------
--3---------------3-----
------------------------

--3---------------------
------------------------
--3---------------3-----



-------------------
------------------
----------0----0------

-------------------
------------------
----------0----3------

-------------------
------------------
----------0----0------

--2----------------
------------------
-------5--------------

--0----------------
------------------
--3-------------------

-------------------
------------------
--0-------------------



-------------0-----------
----------0----0------
-----------0---------

----------------3--------
----------0----3------
--------------3------

----------0--------0-----
----------0-----------
---------------------

----------------------0--
-------5-------4------
--------4------------

-------------------------
----------------------
---------------------

-------------------------
--0-------------------
---------------------



----------0----0------
-----------0-----------
----------0----0------

----------0----3------
--------------3--------
----------0----3------

-------0--0-----------
-----------------0-----
-------0--------------

---------------4------
--------4-----------0--
----------------------

--2-------------------
-----------------------
----------------------

--0-------------------
-----------------------
--0-------------------



-----------0----------
----------0-----------
-----------0-----------

--------------3-------
----------0----3------
--------------3--------

----------------------
----------0-----------
-----------------0-----

--------4----------0--
-------2-------4------
--------4-----------0--

----------------------
----------------------
-----------------------

----------------------
--0-------------------
-----------------------



----------0-----------
-----------0-----------
----------0----0------

----------0----3------
--------------3--------
----------0----3------

---------------0------
-----------------0-----
----------------------

-------2--------------
--------4-----------0--
-------2-------4------

----------------------
-----------------------
----------------------

--0-------------------
-----------------------
--0-------------------



-----------0-----------
----------0-----------
-----------0-----------

--------------3--------
----------0----3------
--------------3--------

-----------------0-----
-------0--------------
-----------------0-----

--------4-----------0--
-------2-------4------
--------4-----------0--

-----------------------
----------------------
-----------------------

-----------------------
--0-------------------
-----------------------



----------0-----------
-----------0-----------
----------0-----------

----------0----3------
--------3-----3--------
----------0----3------

----------0-----------
-----------------0--0--
-------0--------------

---------------4------
--------4--------------
-------2-------4------

-------2--------------
-----------------------
--2-------------------

--0-------------------
-----------------------
--0-------------------



-------------0-------
---------0----0------
----7---------------------

-------------3-------
---------0----3------
----7h8p7-----------------

----------0----------
---------------------
-----------9--7-----------

---------------------
--------------4------
-----------------9--7/-5--

------------------2--
---------------------
--------------------------

------------------0--
----0----------------
--------------------------



----------------------
------------------------
-----------------------

----------------------
---------------8--7-----
-----------------------

----------------------
--4--5--7------------9--
--9----7---------------

--5-7-------------5h7-
------------------------
------------9----------

----------------------
------------------------
---------------10------

----------------------
------------------------
-----------------------



-----7-10--8--7-----------
--------------------------

-----x-----------8--------
--7h-8--7-----7h-8--7-----

-----x--------------7h-9--
-----------9-----------9--

-----x--------------------
--------------------------

--------------------------
--------------------------

--------------------------
--------------------------



--------------------------
-------------------------
----------------------

--7h-8p-7-----7h-8p-7-----
--8----7-----------------
-------------------3--

-----------9-----------9--
----------9--9--7--------
----------------------

--------------------------
-------------------9--9--
----7-----------------

--------------------------
-------------------------
-------10-------------

--------------------------
-------------------------
----------------------



--------------------------------------------
-----------7---------7--7-7-

--------------------------------------------
--5--7--8-----10--8-----8-8-

-----------------------------4--------4h5h7-
----------------------------

--------------4--------4h5h7----4h5h7-------
----------------------------

--------3h5h7----3h5h7----------------------
----------------------------

--3h5h7-------------------------------------
----------------------------



--7-7-7--7--7-7-7--7--7--7-7-
--7--7--7--7-7-7--7--7h10-7--

--8-8-8--8--8-8-8--8--8--8-8-
--8--8--8--8-8-8--8--8-------

-----------------------------
-----------------------------

-----------------------------
-----------------------------

-----------------------------
-----------------------------

-----------------------------
-----------------------------



--7--7-7-7--7-7-7--7--7--7-7-
--7--7--7--7-7-7--7-7-7h10-7--

--8--8-8-8--8-8-8--8--8--8-8-
--8--8--8--8-8-8--8-8-8----8--

-----------------------------
------------------------------

-----------------------------
------------------------------

-----------------------------
------------------------------

-----------------------------
------------------------------



--7--7-7-7--7-7-7--7-7-7p0-0--
--7p0-0--7p0-0--7p0-0--7p0-0--

--8--8-8-8--8-8-8--8-8-8---0--
--8---0--8---0--8---0--8---0--

------------------------------
------------------------------

------------------------------
------------------------------

------------------------------
------------------------------

------------------------------
------------------------------



--7p0-0-10p0-0-7p0-0-10p0-0-7p0-0-10p
--0-0-7p0-0-10p0-0-7p0-0-0-12-12--12-

-------------------------------------
-------------------------------------

-------------------------------------
-------------------------------------

-------------------------------------
-------------------------------------

-------------------------------------
-------------------------------------

-------------------------------------
-------------------------------------



--12--10------------------------
--------------------------

----------12--------------------
--------------------------

--------------12----------------
-----4--5--7--4--------4--

------------------12--10--9--5--
--7--------------5--7-----

--------------------------------
--------------------------

--------------------------------
--------------------------



-------------------------
-----------------------------

-------------------------
-----------------------------

-------------------------
-----------------------------

--7~---5~---4h5p4p2-4----
--4h5p4p2-4----4h5p4p2-4--0--

-------------------------
-----------------------------

-------------------------
-----------------------------



----------------------------
--------5-----7--5--------

----------------------------
--8--7-----8--------8--7--

--------2h4-----2--4--5--7--
--------------------------

--2h4h5------5--------------
--------------------------

----------------------------
--------------------------

----------------------------
--------------------------



---------------------------
----------------------
----------0--0--2--2--2--

--8--7--8--7--8--7--8--10--
--7--7------7------0--
----------0--0--3--3--3--

---------------------------
-------------------0--
----------0--0--0--0--0--

---------------------------
----------------------
-------------------------

---------------------------
----------------------
--2----2-----------------

---------------------------
----------------------
--0----0-----------------



--2--0----2--2--2--2-----
----------2-----------2--
-----2-----2-----2--------

--3--0----0--0--0--0--0--
--0----0--0--0--0--0--0--
--0--0-----0-----0--------

--0--0----0--0--0--0--0--
--0----0--0--0--0--0--0--
--0--0--0--0-----0-----0--

----------------------0--
--2----2-----2--2--2-----
--2-----2-----------2--0--

-------------------------
--2----------------------
--2-----2-----2-----2-----

-------------------------
--0----------------------
--0-----0-----0-----0-----



-------2--2--2--2--2--2--
----2--2--2-----------0--
----------2----2-----2--

-------3--3--3--3--3--3--
----3--3--3--3----3---0--
-------0--0----0-----0--

-------0--0--0--0--0--0--
----0--0--0--0--0-0------
-------0-------------0--

-------4--4--4--4--4--4--
----4--4-----4--4-4------
-------2----------2-----

--3----------3-----------
-------3-----3-----------
--2----2----------2-----

-------------------------
-------------------------
--0----0----------0-----



-----2-----2-----2-----2--
--2-------2--------------
----2--2--2-2-2--2--2-----

-----0-----0--0--0--0--0--
--0----0--0-----0--0--0--
----0--0--0-0-0--0--0-----

--------------0-----0-----
--0----0--------0--0--0--
----0--0--0-0-0--0--0--0--

--------2-----2-----2-----
--2----2-----2--2--2--2--
----2--2------2-----2--0--

--2-----2-----2-----2-----
--2----2-----2-----2-----
-------2------2-----2-----

--0-----0-----0-----0-----
--0----0-----0-----0-----
-------0------0-----0-----



--2-------2-----2-----2--
-----2--2--2-2-2--2--2------

--3-------3-----3--3--3--
-----3--3--3-3-3--3--3--0-0-

--0-------0-----0--0--0--
--0--0--0--0---0--0--0--0-0-

-------------------------
------------------------0-0-

--3----3-----3-----3-----
--3-----3------3--3--3--0-0-

-------------------------
----------------------------



-----2-2----2------2--2--2--
------2--2--2-----2--2-----

-----3-3----3------3--3--3--
--3-3-3--3--3-----3--3-----

-----2-2----2------2--2--2--
--2-2-2--2--2-----2--2--0--

--4--4---4--4--4-4-4--4--4--
--4-4-4--4--4--4--4--4-----

--2------2-----2-2-2-----2--
--2-2----2--2--2--2--2--3--

--0------0-----0-0-0-----0--
--0-0----0--0--0--0--0-----



--0--0-0-0--0--2-2-2--2--2--
----------------3-3--------3------

--3--3-3-3--3--3-3-3--3--3--
--3-3-3--3--3-3-3-3----3-3-3------

--0--0-0-0--0--0-0-0--0--0--
--0-0-0--0--0-0-0-0----0-0-0------

----------------------------
----------------------------------

--3--3-3-3--3--3-3-3--3--3--
--3-3-3--3--3-3---3--3-----3--3-3-

----------------------------
------------------------------0-0-



-----------2----2--2------
------------2-----------2------

-----0-----0----0--0------
--0--0-0-0--0-----------0------

-----0-----0-------0------
--0--0-0-0--0-----------0------

-------------------2--2-2-
--2--2-2-2--2------------------

--2----------------2--2-2-
--2---------2--2-2-2-2-----3-3-

--0-----0----------0--0-0-
--0---------0--0-0-0-0-----0-0-



------------0---------0--------
--------------0-----------2------

------------0----0----0--------
--------------0-----------0------

------------0----0----0--------
--------------0-----------0------

----------------------2--------
---------------------------------

--3--3-3-3--3--3---3--3--3-3-3-
--3--3-3-3-3-----3-3-3-3-----2-2-

--0--0-0-0-----0---0--0--0-0-0-
--0--0-0-0-0-----0-0-0-0-----0-0-



--2---------2---------2------
------------2---------2--2-2-

--0---------0---------0--0-0-
------------0---------0--0-0-

--0---------0---------0--0-0-
------------0---------0--0-0-

--2-------------------2------
------------2----------------

-----2-2-2-----2-2-2---------
--2--2-2-2-----2-2-2---------

-----0-0-0-----0-0-0---------
--0--0-0-0-----0-0-0---------



-----------------------------
--2--2-2-2--2--2-2-2--2-----

-------------------------0-0-
--0--0-0-0--0--0-0-0--0-----

-------------------------0-0-
-------------------------0--

-----------------------------
-------------------------0--

--3--3-3-3--3--2-2-2--2------
----------------------------

--0--0-0-0--0--0-0-0--0------
----------------------------



---------------------------------
----------------------------------

--7-0--0-5-7---7-------7---7---7-
--7-7-7-7-7-7-7-7-7-7-7-7-7-7-7-7-

----0--0-5---5-----5-5---5---5---
--5-5-5-5-5-5-5-5-5-5-5-5-5-5-5-5-

-----------------5---------------
----------------------------------

---------------------------------
----------------------------------

---------------------------------
----------------------------------



----------------------------------
----------------------------------

--7-7-7-7-7-7-7-7-7-7-7-7-7-7-7-7-
----7---7---7---7---7---7---7---7-

--5-5-5-5-5-5-5-5-5-5-5-5-5-5-5-5-
--5---5---5---5---5---5---5---5---

----------------------------------
----------------------------------

----------------------------------
----------------------------------

----------------------------------
----------------------------------



----------------------------------
----------------------------------12-

----7---7---7---7---7---7---7---7-
----7---7---7---7---7---7---7---7----

--5---5---5---5---5---5---5---5---
--5---5---5---5---5---5---5---5------

----------------------------------
-------------------------------------

----------------------------------
-------------------------------------

----------------------------------
-------------------------------------



--------------------
------------------
------------------

--------------------
------------------
------------------

--------------------
------------------
------------------

--------------------
------------------
------------------

--------------------
------------------
------------------

------12------------
------------------
------------------



END OF SONG

~~~~~~~~~~~~~~~~~~~~~~~~~~~~~~~~~~~~~~~~~~~~~~~~~~~~~~~~~~~~~~~~~~~~~~~~
 


/
How To Set Up Higher Praise As Your Home Page
Copyright 1999, Higher Praise HigherPraise,Inc. All rights reserved. Terms of Use

Enjoy A Life Changing Experience

 
 
 
HigherPraise, Higher Praise, HigherPraise, Higher Praise, HigherPraise

Members..Sign Up. LogIn

 
 

Higher Praise Other Sites
 
 

HigherPraise.org/
Praise And Worship
www.higherpraise.org

HigherPraise.net
Christian Resources
www.higherpraise.net

HigherPraiseTube.com
Videos And Audios
www.higherpraisetube.com.


ChristianLyrics.org

Lyrics And Chrords
www.christianlyrics.org

ChristianChordsLyrics

Lyrics And Chrords
www.christianchordslyrics.com

ChristianChordLyrics

Lyrics And Chrords
www.christianchordlyrics.com

WorshipLyrics.org
10.000 Illustrations
www.worshiplyrics.org

WorshipLyrics.net
10.000 Illustrations
www.worshiplyrics.net

PraiseLyrics.com
PowerPoint Lyrics

www.praiselyrics.com

PraiseLyrics.org
PowerPoint Lyrics

www.praiselyrics.org

1GodTube.com
Chistian Videos

www1godtube..com

OneGodTube.com
Chistian Videos

www.onegodtube..com

 

/
Copyright 1999 - 2019, Higher Praise™ HigherPraise™,Inc. All rights reserved. Terms of Use