Higher Praise - Guitar Chords, Lyrics  GuitarTabs -  Praise nad Worship Music And Christian Songs

Higher Praise - Guitar Tabs, Guitar Chords, Lyrics
   Lyrics, Chords And Tabs
   Popular Lyrics Chords Tab
   Power Point Lyrics
   Praise & Worship Music
   Christian Music Videos
   15900 Videos & Audios
   Midi Files
   Worship Questions
   Christmas Chords, Lyrics
   Lyrics, Chords Tabs Rated

Sermon Outlines And Audio Sermons
   9344 Sermon Outlines
   N.T. Sermon Outlines
   O.T. Sermon Outlines
   Special Guest Outlines
   10.000 Illustrations
   Sunday School Studies
   Bible College Studies
   Greatest Preachers
   Bible Research Tools
Audio Sermons
   2895 Audio Sermons
   85 Sermon Videos
   291 Special Guests Serm

   Complete Audio Bible
Higher Praise Sunday School Teaching
   Children's NT Studies
   Children's OT Studies

   98 Children's Midis
   Gospel For Kids Movie
   Children's JESUS Film
Higher Praise Christian Video Library ,Videos
   Christian Television
   TBN TV Live
   15,000 Videos - HP Tube
   712 Youth Music Vids
  Christian Video Library
   Praise Videos #1 & #2
   85 Sermon Videos
   Prophecy Film -Videos
   JESUS Film -Video
   Childrens JESUS Film
   Gospel For Kids Movie
   Passion Of The Christ
   Noah, Sodom, Sinai, Ark
   Tsunami Videos Photos
News And Information
   Testimonies
   Submit Lyrics, Tabs, Serm
   10.000 Illustrations
   Bible College Course
   Clipart & Web Graphics
   Greatest Preachers
   Complete Talking Bible
   Christian Chat Rooms
   Links Church Resource
   HP Statement Of Faith
Download Clipart
   Audio Sermons
   Clipart & Web Graphics
   Church Administration
   Bible Study Software
   Screen Savers Software
   Verse A Day Software
   Educational Games
   Trade Center Photos

   Soft. Search Engine
Higher Praise News
   Current News
    Archived News
   Submit News
   Newsletter   Higher Praise Interact Prayer
   Prayer For All Needs
   
Submit Lyrics, Sermons
   
Contact Higher Praise
   
Advertising 
   Privacy Policy
//
He Died For You,  Click For Answer! This Is Who Jesus Is Video

'
 
0-9 A B C D E F G H I J K L M N O P Q R S T U V W X Y Z
.

//
Click For Printable...Version Of This File
 

All Day Everyday


by Pillar




Author/Artist: Pillar
Title: All Day Everyday
Album: Above
Transcribed by: Darrick Hurst


Iíve gotten a lot of e-mails asking me to tab out this song, so here it is.
This is a pretty awesome song and a lot of fun to play. It has almost a 
limp bizkit feel to it. This is the whole song, you just have to find the 
right place to play the riffs. I didnít know what to call most of these
riffs, so I just put down the time on the CD where Travis plays Ďem.
Have fun with it... 

∑	e-
∑	B-
∑	G- played in Drop-d tuning
∑	D-
∑	A-
∑	D-

Intro and Verse:
-
-12--12----------------------------------------
-
-
----------10-10-10----13--13---11-11-11-11h13--
-   this gets played 
-
-----------------------------------------------
-   withquite a bit of 
-
-----------------------------------------------
-   delay, so some of
-
-----------------------------------------------
-	these notes may 
-
-----------------------------------------------
-	just be an echo
                                                                              
Chorus:
-
--------------------------
-
-
--------------------------
-	Lots of rectified distortion
-
--------------------------
-	and some fast sliding will make
-
-2\0---2\0---0--0--0--0-0-
-	this sound right, just repeat a
-
-2\0---2\0---0--0--0--0-0-
-	couple times
-
-2\0---2\0---0--0--0--0-0-
-
                                                                              
1:19          1:29
-
-----------
----------------------------------
-
-
-----------
-10-10--13-13--11-11-11-11--11p10-
-
-
-----------
----------------------------------
-
-
-(0~)------
----------------------------------
-
-
-(0~)------
----------------------------------
-
-
-(0~)------
----------------------------------
-
                                                                              
1:39
-
-------------------------------------
-
-
-------------------------------------
-
-
-------------------------------------
-  repeat a couple of times
-
-----------------------------3-3-----
-
-
----------------5-5-5-------------5--
-
-
--0-0-0--6-6-6---------6-6-6---------
-
                                                                              
1:59
-
-----------------------------------
-
-
-----------------------------------
-
-
-----------------------------------
-
-
-0--2--1--0--2--1--0----0--0--0--0-
-  repeat a couple of times
-
-0--2--1--0--2--1--0----0--0--0--0-
-
-
-0--2--1--0--2--1--0----0--0--0--0-
-
                                                                              
2:19  (-palm mute and strum up and down fast)
-
-----------------
-----------------
-----------------
-----------------
-
-
-----------------
-----------------
-----------------
-----------------
-
-
-----------------
-----------------
-----------------
-----------------
-
-
-0-0-0-0-0-0-0-0-
-0-0-0-0-0-0-0-0-
-0-0-0-0-0-0-0-0-
-0-0-0-0-0-0-----
-
-
-0-0-0-0-0-0-0-0-
-0-0-0-0-0-0-0-0-
-0-0-0-0-0-0-0-0-
-0-0-0-0-0-0-----
-
-
-0-0-0-0-0-0-0-0-
-0-0-0-0-0-0-0-0-
-0-0-0-0-0-0-0-0-
-0-0-0-0-0-0-----
-
                                                                              
2:28  (-this part is hard to hear, but this is how it goes...)
-
-------------------------------
-------------------------------
-
-
-------------------------------
-------------------------------
-
-
-------------------------------
-------------------------------
-
-
-0--6-6---0--6-6---0--6--0-0-0-
-0--6-6---0--6-6---0--6--0-0-0-
-
-
-0--6-6---0--6-6---0--6--5-5-5-
-0--6-6---0--6-6---0--6--6-6-6-
-
-
-0--6-6---0--6-6---0--6--0-0-0-
-0--6-6---0--6-6---0--6--0-0-0-
-
                                                                              
2:46
-
---------------------------
-
-
---------------------------
-	more distortion and repeat a couple 
-
---------------------------
-	of times, and youíve got it
-
----------------0--0--0--0-
-
-
-0h1p0---0h1p0--0--0--0--0-
-
-
----------------0--0--0--0-
-

Anyways, this should be right, and I hope it makes sense. Have fun 


peace	--Darrick
 


/
How To Set Up Higher Praise As Your Home Page
Copyright 1999, Higher Praise HigherPraise,Inc. All rights reserved. Terms of Use

Enjoy A Life Changing Experience

 
 
 
HigherPraise, Higher Praise, HigherPraise, Higher Praise, HigherPraise

Members..Sign Up. LogIn

 
 

Higher Praise Other Sites
 
 

HigherPraise.org/
Praise And Worship
www.higherpraise.org

HigherPraise.net
Christian Resources
www.higherpraise.net

HigherPraiseTube.com
Videos And Audios
www.higherpraisetube.com.


ChristianLyrics.org

Lyrics And Chrords
www.christianlyrics.org

ChristianChordsLyrics

Lyrics And Chrords
www.christianchordslyrics.com

ChristianChordLyrics

Lyrics And Chrords
www.christianchordlyrics.com

WorshipLyrics.org
10.000 Illustrations
www.worshiplyrics.org

WorshipLyrics.net
10.000 Illustrations
www.worshiplyrics.net

PraiseLyrics.com
PowerPoint Lyrics

www.praiselyrics.com

PraiseLyrics.org
PowerPoint Lyrics

www.praiselyrics.org

1GodTube.com
Chistian Videos

www1godtube..com

OneGodTube.com
Chistian Videos

www.onegodtube..com

 

/
© Copyright 1999 - 2019, Higher Praise™ HigherPraise™,Inc. All rights reserved. Terms of Use