Higher Praise - Guitar Chords, Lyrics  GuitarTabs -  Praise nad Worship Music And Christian Songs

Higher Praise - Guitar Tabs, Guitar Chords, Lyrics
   Lyrics, Chords And Tabs
   Popular Lyrics Chords Tab
   Power Point Lyrics
   Praise & Worship Music
   Christian Music Videos
   15900 Videos & Audios
   Midi Files
   Worship Questions
   Christmas Chords, Lyrics
   Lyrics, Chords Tabs Rated

Sermon Outlines And Audio Sermons
   9344 Sermon Outlines
   N.T. Sermon Outlines
   O.T. Sermon Outlines
   Special Guest Outlines
   10.000 Illustrations
   Sunday School Studies
   Bible College Studies
   Greatest Preachers
   Bible Research Tools
Audio Sermons
   2895 Audio Sermons
   85 Sermon Videos
   291 Special Guests Serm

   Complete Audio Bible
Higher Praise Sunday School Teaching
   Children's NT Studies
   Children's OT Studies

   98 Children's Midis
   Gospel For Kids Movie
   Children's JESUS Film
Higher Praise Christian Video Library ,Videos
   Christian Television
   TBN TV Live
   15,000 Videos - HP Tube
   712 Youth Music Vids
  Christian Video Library
   Praise Videos #1 & #2
   85 Sermon Videos
   Prophecy Film -Videos
   JESUS Film -Video
   Childrens JESUS Film
   Gospel For Kids Movie
   Passion Of The Christ
   Noah, Sodom, Sinai, Ark
   Tsunami Videos Photos
News And Information
   Testimonies
   Submit Lyrics, Tabs, Serm
   10.000 Illustrations
   Bible College Course
   Clipart & Web Graphics
   Greatest Preachers
   Complete Talking Bible
   Christian Chat Rooms
   Links Church Resource
   HP Statement Of Faith
Download Clipart
   Audio Sermons
   Clipart & Web Graphics
   Church Administration
   Bible Study Software
   Screen Savers Software
   Verse A Day Software
   Educational Games
   Trade Center Photos

   Soft. Search Engine
Higher Praise News
   Current News
    Archived News
   Submit News
   Newsletter   Higher Praise Interact Prayer
   Prayer For All Needs
   
Submit Lyrics, Sermons
   
Contact Higher Praise
   
Advertising 
   Privacy Policy
//
He Died For You,  Click For Answer! This Is Who Jesus Is Video

'
 
0-9 A B C D E F G H I J K L M N O P Q R S T U V W X Y Z
.

//
Click For Printable...Version Of This File
 

I Need Ground


by Peter Frampton




These are the tabs to "I Need Ground" from Peter Frampton's new album "Now".
This is my first attempt at tabbing out a song, but I am 99.9% sure that this
is right.  The only thing I'm not sure about is the solo, but I usually just
improvise there anyways.  If anybody could tab out the solo, that would be
a great help.

I Need Ground
Artist: Peter Frampton
Album: Now

4 measures of drums, then:
Intro:
E --------------8------------------------------8--------

B --7--8--10-------10--8--7----7--8--10--------10--8--7-

G ------------------------------------------------------

D ------------------------------------------------------

A ------------------------------------------------------

E ------------------------------------------------------


Verse 1

E ------------8-------------------------------10------------

B --7--8--10-------10---8---7------7--8---10------10--8--7--

    I am swimming with the birds, hanging on her every word

Prechorus 1
B ------------3--let ring-------------------------3--let ring----

G -----4--------let ring-------------------4--------let ring-----

D ---3----5----let ring------------------3---5------let ring-----

                          I walk a wire,                        of my desire

Repeat Intro

Verse 2 (Like Verse 1)

Like a siren voice so sweet

Woman rock me off my feet.

Prechorus 2
D -9-10-12-let ring---10-----------12---10---10--let ring----------

A -7-8--10-let ring---8------------10---8----7---let ring----------

E -7-8--10-let ring---8------------10---8----7---let ring----------

                  She won't let me fall from grace.


D -9---10-12---
let ring
A -7----8--10--
let ring
E -7----8--10--
let ring
   Just in case,

Chorus
	D	   C
E ------5-5-5-5---3-3-3-3-------------------------

B ------7-7-7-7---5-5-5-5-------------------------

G ------7-7-7-7---5-5-5-5-------------------------

D ------7-7-7-7---5-5-5-5-------------------------

A ------5-5-5-5---3-3-3-3-------------------------

E ------5-5-5-5---3-3-3-3-------------------------

I need ground
   F			      G
E -1------------1----1--1-sl--3--3-

B -1------------1----1--l-sl--3--3-

G -2------------2----2--2-sl--4--4-

D -3------------3----3--3-sl--5--5-

A -3------------3----3--3-sl--5--5-

E -1------------1----1--1-sl--3--3-

    Somewhere soft to land
		D	   C
E ---------------5-5-5-5---3-3-3-3-------------------------

B ---------------7-7-7-7---5-5-5-5-------------------------

G ---------------7-7-7-7---5-5-5-5-------------------------

D ---------------7-7-7-7---5-5-5-5-------------------------

A ---------------5-5-5-5---3-3-3-3-------------------------

E ---------------5-5-5-5---3-3-3-3-------------------------

When I go do down
   F			      G
E -1------------1----1--1-sl--3--3---

B -1------------1----1---l-sl--3--3--

G -2------------2----2--2-sl--4--4---

D -3------------3----3--3-sl--5--5---

A -3------------3----3--3-sl--5--5---

E -1------------1----1--1-sl---3--3--

Somewhere safe to stand
		D            C
E ---------------5-5-5-5---3-3-3-3-------------------------

B ---------------7-7-7-7---5-5-5-5-------------------------

G ---------------7-7-7-7---5-5-5-5-------------------------

D ---------------7-7-7-7---5-5-5-5-------------------------

A ---------------5-5-5-5---3-3-3-3-------------------------

E ---------------5-5-5-5---3-3-3-3-------------------------

When she's around


E ---1-----------------3---

B ---1-----------------3---

G ---2-----------------4---

D ---3-----------------5---

A ---3-----------------5---

E ---1-----------------3---

I'm not the Superman that I think I am.

    E-------------8------------------

    B--7--8--10----10--8--7----------

I need ground

Verse 3 (Like Verse 1)

I am floating, flying high,

Out of body, out of mind

Prechorus 3

D -9-10-12-let ring-10--------12-10--10--let ring----------

A -7-8--10-let ring-8---------10--8--7---let ring----------

E -7-8--10-let ring-8---------10--8--7---let ring----------

		Not so steady as she goes

D -9---10--12--
let ring
A -7----8--10--
let ring
E -7----8--10--
let ring
   Heaven knows

Repeat Chorus

E --2--3--5--8--5--3--2--2--3--5--10--5--3--2----------

B -----------------------------------------------------

G -----------------------------------------------------

D --4--5--7-10-7--5--4--4--5--7--12--7--5--4-----------

A -----------------------------------------------------


Pre-solo
 Guitar 1
     E ----------------------------------------------------------------------------------

     B --8b10----8b10r8----6--8--------6---8----------------6---8---8b10r8----6--8-------

     G ---------------------------7--------------7------7--------------------------------

     D ----------------------------------------------------------------------------------

     A ----------------------------------------------------------------------------------

     E ----------------------------------------------------------------------------------


Guitar 2
     E-----------------------------------------------------------------------------------

     B-----------------------------------------------------------------------------------

     G-----------------------------------------------------------------------------------

     D --5b7----5b7r5-----3--5--------3---5----------------3---5---5b7r5----3--5---------

     A ---------------------------5--------------5------5--------------------------------

     E-----------------------------------------------------------------------------------


Solo (??)
	Beginning
E------------------------------------

B--8b10r8---6--8--6-----6------------

G--------------------7-----9---------

D-----------------------------10--7--

A------------------------------------

E------------------------------------


Prechorus 4
D -9-10-12-let ring-10--------12-10--10--let ring----------

A -7-8--10-let ring-8---------10--8--7---let ring----------

E -7-8--10-let ring-8---------10--8--7---let ring----------

	       Take me to a higher place
D -9-10-12-let ring-10--------12-10--10--let ring----------

A -7-8--10-let ring-8---------10--8--7---let ring----------

E -7-8--10-let ring-8---------10--8--7---let ring----------

	       Look an angel in the face

D -9-----10---12--
let ring
A -7-----8----10--
let ring
E -7-----8----10--
let ring
   Don't look down

E------------------------------------------------------------

B---------3-------3----3-----3------------3------3-----3-----

G------------------------------------------------------------

D------0------------------------------0----------------------

A--------------3----2----1--------------------3-----2-----1--

E------------------------------------------------------------

I need ground                   I need ground

Somewhere safe to stand

		D            C
E ---------------5-5-5-5---3-3-3-3-------------------------

B ---------------7-7-7-7---5-5-5-5-------------------------

G ---------------7-7-7-7---5-5-5-5-------------------------

D ---------------7-7-7-7---5-5-5-5-------------------------

A ---------------5-5-5-5---3-3-3-3-------------------------

E ---------------5-5-5-5---3-3-3-3-------------------------

When she's around

    F                 G
E ---1-----------------3---

B ---1-----------------3---

G ---2-----------------4---

D ---3-----------------5---

A ---3-----------------5---

E ---1-----------------3---

I'm not the Superman that I think I am.

	D	   C
E ------5-5-5-5---3-3-3-3-------------------------

B ------7-7-7-7---5-5-5-5-------------------------

G ------7-7-7-7---5-5-5-5-------------------------

D ------7-7-7-7---5-5-5-5-------------------------

A ------5-5-5-5---3-3-3-3-------------------------

E ------5-5-5-5---3-3-3-3-------------------------

I need ground

   F			      G
E -1------------1----1--1-sl--3--3-

B -1------------1----1--l-sl--3--3-

G -2------------2----2--2-sl--4--4-

D -3------------3----3--3-sl--5--5-

A -3------------3----3--3-sl--5--5-

E -1------------1----1--1-sl--3--3-


	D	   C
E ------5-5-5-5---3-3-3-3-------------------------

B ------7-7-7-7---5-5-5-5-------------------------

G ------7-7-7-7---5-5-5-5-------------------------

D ------7-7-7-7---5-5-5-5-------------------------

A ------5-5-5-5---3-3-3-3-------------------------

E ------5-5-5-5---3-3-3-3-------------------------

I need ground

   F			      G
E -1------------1----1--1-sl--3--3-

B -1------------1----1--l-sl--3--3-

G -2------------2----2--2-sl--4--4-

D -3------------3----3--3-sl--5--5-

A -3------------3----3--3-sl--5--5-

E -1------------1----1--1-sl--3--3-


	D	   C
E ------5-5-5-5---3-3-3-3-------------------------

B ------7-7-7-7---5-5-5-5-------------------------

G ------7-7-7-7---5-5-5-5-------------------------

D ------7-7-7-7---5-5-5-5-------------------------

A ------5-5-5-5---3-3-3-3-------------------------

E ------5-5-5-5---3-3-3-3-------------------------

I need ground

   F			      G
E -1------------1----1--1-sl--3--3-

B -1------------1----1--l-sl--3--3-

G -2------------2----2--2-sl--4--4-

D -3------------3----3--3-sl--5--5-

A -3------------3----3--3-sl--5--5-

E -1------------1----1--1-sl--3--3-


	D	   C
E ------5-5-5-5---3-3-3-3-------------------------

B ------7-7-7-7---5-5-5-5-------------------------

G ------7-7-7-7---5-5-5-5-------------------------

D ------7-7-7-7---5-5-5-5-------------------------

A ------5-5-5-5---3-3-3-3-------------------------

E ------5-5-5-5---3-3-3-3-------------------------

 


/
How To Set Up Higher Praise As Your Home Page
Copyright 1999, Higher Praise HigherPraise,Inc. All rights reserved. Terms of Use

Enjoy A Life Changing Experience

 
 
 
HigherPraise, Higher Praise, HigherPraise, Higher Praise, HigherPraise

Members..Sign Up. LogIn

 
 

Higher Praise Other Sites
 
 

HigherPraise.org/
Praise And Worship
www.higherpraise.org

HigherPraise.net
Christian Resources
www.higherpraise.net

HigherPraiseTube.com
Videos And Audios
www.higherpraisetube.com.


ChristianLyrics.org

Lyrics And Chrords
www.christianlyrics.org

ChristianChordsLyrics

Lyrics And Chrords
www.christianchordslyrics.com

ChristianChordLyrics

Lyrics And Chrords
www.christianchordlyrics.com

WorshipLyrics.org
10.000 Illustrations
www.worshiplyrics.org

WorshipLyrics.net
10.000 Illustrations
www.worshiplyrics.net

PraiseLyrics.com
PowerPoint Lyrics

www.praiselyrics.com

PraiseLyrics.org
PowerPoint Lyrics

www.praiselyrics.org

1GodTube.com
Chistian Videos

www1godtube..com

OneGodTube.com
Chistian Videos

www.onegodtube..com

 

/
Copyright 1999 - 2019, Higher Praise™ HigherPraise™,Inc. All rights reserved. Terms of Use