Higher Praise - Guitar Chords, Lyrics  GuitarTabs -  Praise nad Worship Music And Christian Songs

Higher Praise - Guitar Tabs, Guitar Chords, Lyrics
   Lyrics, Chords And Tabs
   Popular Lyrics Chords Tab
   Power Point Lyrics
   Praise & Worship Music
   Christian Music Videos
   15900 Videos & Audios
   Midi Files
   Worship Questions
   Christmas Chords, Lyrics
   Lyrics, Chords Tabs Rated

Sermon Outlines And Audio Sermons
   9344 Sermon Outlines
   N.T. Sermon Outlines
   O.T. Sermon Outlines
   Special Guest Outlines
   10.000 Illustrations
   Sunday School Studies
   Bible College Studies
   Greatest Preachers
   Bible Research Tools
Audio Sermons
   2895 Audio Sermons
   85 Sermon Videos
   291 Special Guests Serm

   Complete Audio Bible
Higher Praise Sunday School Teaching
   Children's NT Studies
   Children's OT Studies

   98 Children's Midis
   Gospel For Kids Movie
   Children's JESUS Film
Higher Praise Christian Video Library ,Videos
   Christian Television
   TBN TV Live
   15,000 Videos - HP Tube
   712 Youth Music Vids
  Christian Video Library
   Praise Videos #1 & #2
   85 Sermon Videos
   Prophecy Film -Videos
   JESUS Film -Video
   Childrens JESUS Film
   Gospel For Kids Movie
   Passion Of The Christ
   Noah, Sodom, Sinai, Ark
   Tsunami Videos Photos
News And Information
   Testimonies
   Submit Lyrics, Tabs, Serm
   10.000 Illustrations
   Bible College Course
   Clipart & Web Graphics
   Greatest Preachers
   Complete Talking Bible
   Christian Chat Rooms
   Links Church Resource
   HP Statement Of Faith
Download Clipart
   Audio Sermons
   Clipart & Web Graphics
   Church Administration
   Bible Study Software
   Screen Savers Software
   Verse A Day Software
   Educational Games
   Trade Center Photos

   Soft. Search Engine
Higher Praise News
   Current News
    Archived News
   Submit News
   Newsletter   Higher Praise Interact Prayer
   Prayer For All Needs
   
Submit Lyrics, Sermons
   
Contact Higher Praise
   
Advertising 
   Privacy Policy
//
He Died For You,  Click For Answer! This Is Who Jesus Is Video

'
 
0-9 A B C D E F G H I J K L M N O P Q R S T U V W X Y Z
.

//
Click For Printable...Version Of This File
 

Decode


by Paramore




Hey everybody, I dont have any merite for this tabs, that's just the GP ver 2 but
in ASCII export.. for someone who doesnt have Guitar Pro, this tbas is just
PERFECT.

________________________________________________________________________

TuNING = Drop C#
________________________________________________________________________


GUIT 1



      W                   W                   W                 
D#
-------------------
-------------------
-------------------

A#
-------------------
-------------------
-------------------

F#
-------------------
-------------------
-------------------

C#
-------------------
-------------------
-------------------

G#
-------------------
-------------------
-------------------

C#
-------------------
-------------------
-------------------



                          PM PM PM PM PM PM PM PM  
  H        E  E  E  E     E  E  E  E  E  E  E  E   
-----------------------
--------------------------

-----------------------
--------6--6--------------

--------------6--6--6--
--------7--7--------------

--------------7--7--7--
--7--7--7--7--7--7--7--7--

--------------4--4--4--
--5--5--5--5--5--5--5--5--

-----------------------
--------------------------



   PM  PM  PM  PM  PM  PM  PM  PM    PM PM PM PM PM PM PM PM  
   E   E   E   E   E   E   E   E     E  E  E  E  E  E  E  E   
----------------------------------
--------------------------

----------10--10------------------
--------3--3--------------

----------12--12------------------
--------5--5--------------

--12--12--12--12--12--12--12--12--
--5--5--5--5--5--5--5--5--

--10--10--10--10--10--10--10--10--
--3--3--3--3--3--3--3--3--

----------------------------------
--------------------------



  PM PM PM PM PM PM PM PM    PM PM PM PM PM PM PM PM  
  E  E  E  E  E  E  E  E     E  E  E  E  E  E  E  E   
--------------------------
--------------------------

--------6--6--6--6--6--6--
--------6--6--------------

--------7--7--7--7--7--7--
--------7--7--------------

--7--7--7--7--7--7--7--7--
--7--7--7--7--7--7--7--7--

--5--5--5--5--5--5--5--5--
--5--5--5--5--5--5--5--5--

--------------------------
--------------------------



   PM  PM  PM  PM  PM  PM  PM  PM    PM PM PM PM PM PM PM PM  
   E   E   E   E   E   E   E   E     E  E  E  E  E  E  E  E   
----------------------------------
--------------------------

----------10--10------------------
--------3--3--------------

----------12--12------------------
--------5--5--------------

--12--12--12--12--12--12--12--12--
--5--5--5--5--5--5--5--5--

--10--10--10--10--10--10--10--10--
--3--3--3--3--3--3--3--3--

----------------------------------
--------------------------



  PM PM PM PM PM PM PM PM    ^                   ^                 
  E  E  E  E  E  E  E  E     W                   W                 
--------------------------
--1----------------
--3----------------

--------6--6--6--6--6--6--
--1----------------
--3----------------

--------7--7--7--7--7--7--
--3----------------
--5----------------

--7--7--7--7--7--7--7--7--
--3----------------
--5----------------

--5--5--5--5--5--5--5--5--
--1----------------
--3----------------

--------------------------
-------------------
-------------------



  ^                                       ^                   ^                 
  W                   W                   W                   W                 
--5----------------
--L----------------
--1----------------
--3----------------

--6----------------
--L----------------
--1----------------
--3----------------

--7----------------
--L----------------
--3----------------
--5----------------

--7----------------
--L----------------
--3----------------
--5----------------

--5----------------
--L----------------
--1----------------
--3----------------

-------------------
-------------------
-------------------
-------------------



  ^                                                                    
  W                   W                    E   E   E   E   Q     Q     
--5----------------
--L----------------
--12--13--12------------13----

--6----------------
--L----------------
--------------13--------------

--7----------------
--L----------------
------------------12----------

--7----------------
--L----------------
------------------------------

--5----------------
--L----------------
------------------------------

-------------------
-------------------
------------------------------



   H         E  Q.        W                   W                 
--12---------L---------
-------------------
-------------------

-----------------------
-------------------
-------------------

-----------------------
--7----------------
--L----------------

-----------------------
--7----------------
--L----------------

-----------------------
--0----------------
--L----------------

-----------------------
--0----------------
--L----------------



  W                   H.           Q       E.  E  S E  E  E  Q     
-------------------
--------------------
--------------------0----

-------------------
--------------------
--------------------5----

--7----------------
--L-----------------
--------------------5----

--7----------------
--L-----------------
--0---0----3--3-----5----

--0----------------
--L-----------------
--0---0----3--3-----3----

--0----------------
--L-----------------
--0---0----3--3----------



  W                   E.  E  S E  E  E  Q       W                 
--L----------------
--------------------0----
--L----------------

--L----------------
--------------------5----
--L----------------

--L----------------
--3---L-------------5----
--L----------------

--L----------------
--3---L----0--0-----5----
--L----------------

--L----------------
--1---L----0--0-----3----
--L----------------

-------------------
-----------0--0----------
-------------------



  E.  E  S E  E  E  Q       W                   E  E  E  E  E  E  E  E   
--------------------0----
--L----------------
--------------------------

--------------------5----
--L----------------
--------------------------

--------------------5----
--L----------------
--3--3--3--3--3--3--3--3--

--0---0----3--3-----5----
--L----------------
--3--3--3--3--3--3--3--3--

--0---0----3--3-----3----
--L----------------
--1--1--1--1--1--1--1--1--

--0---0----3--3----------
-------------------
--------------------------



  E  E  E  E  E  Q.         E   E   E   E   E  E  E   E   
------------------------
--------------------------------

------------------------
--10--11--10--------------------

--5--5--5--5--5---------
--------------12--10-----9--10--

--5--5--5--5--5---------
--------------------------------

--3--3--3--3--3---------
--------------------------------

------------------------
--------------------------------



  E   E   E  E   E  E   E  E      E   E   E   E   E  E  E   E   
------------------------------
--------------------------------

------------------------------
--10--11--10--------------------

--9---------------------------
--------------12--10-----9--10--

-----12--10-----10-----10-----
--------------------------------

------------------------------
--------------------------------

------------------------------
--------------------------------



                             PM PM PM PM PM PM PM PM  
  E   E   E  E   H           E  E  E  E  E  E  E  E   
----------------10--------
--------------------------

--------------------------
--------6--6--------------

--9-----------------------
--------7--7--------------

-----12--10---------------
--7--7--7--7--7--7--7--7--

--------------------------
--5--5--5--5--5--5--5--5--

--------------------------
--------------------------



   PM  PM  PM  PM  PM  PM  PM  PM    PM PM PM PM PM PM PM PM  
   E   E   E   E   E   E   E   E     E  E  E  E  E  E  E  E   
----------------------------------
--------------------------

----------10--10------------------
--------3--3--------------

----------12--12------------------
--------5--5--------------

--12--12--12--12--12--12--12--12--
--5--5--5--5--5--5--5--5--

--10--10--10--10--10--10--10--10--
--3--3--3--3--3--3--3--3--

----------------------------------
--------------------------



  PM PM PM PM PM PM PM PM    PM PM PM PM PM PM PM PM  
  E  E  E  E  E  E  E  E     E  E  E  E  E  E  E  E   
--------------------------
--------------------------

--------6--6--6--6--6--6--
--------6--6--------------

--------7--7--7--7--7--7--
--------7--7--------------

--7--7--7--7--7--7--7--7--
--7--7--7--7--7--7--7--7--

--5--5--5--5--5--5--5--5--
--5--5--5--5--5--5--5--5--

--------------------------
--------------------------



   PM  PM  PM  PM  PM  PM  PM  PM    PM PM PM PM PM PM PM PM  
   E   E   E   E   E   E   E   E     E  E  E  E  E  E  E  E   
----------------------------------
--------------------------

----------10--10------------------
--------3--3--------------

----------12--12------------------
--------5--5--------------

--12--12--12--12--12--12--12--12--
--5--5--5--5--5--5--5--5--

--10--10--10--10--10--10--10--10--
--3--3--3--3--3--3--3--3--

----------------------------------
--------------------------



  PM PM PM PM PM PM PM PM    ^                   ^                 
  E  E  E  E  E  E  E  E     W                   W                 
--------------------------
--1----------------
--3----------------

--------6--6--6--6--6--6--
--1----------------
--3----------------

--------7--7--7--7--7--7--
--3----------------
--5----------------

--7--7--7--7--7--7--7--7--
--3----------------
--5----------------

--5--5--5--5--5--5--5--5--
--1----------------
--3----------------

--------------------------
-------------------
-------------------



  ^                                       ^                   ^                 
  W                   W                   W                   W                 
--5----------------
--L----------------
--1----------------
--3----------------

--6----------------
--L----------------
--1----------------
--3----------------

--7----------------
--L----------------
--3----------------
--5----------------

--7----------------
--L----------------
--3----------------
--5----------------

--5----------------
--L----------------
--1----------------
--3----------------

-------------------
-------------------
-------------------
-------------------



  ^                                                                    
  W                   W                    E   E   E   E   Q     Q     
--5----------------
--L----------------
--12--13--12------------13----

--6----------------
--L----------------
--------------13--------------

--7----------------
--L----------------
------------------12----------

--7----------------
--L----------------
------------------------------

--5----------------
--L----------------
------------------------------

-------------------
-------------------
------------------------------



   H         E  Q.        W                   W                 
--12---------L---------
-------------------
-------------------

-----------------------
-------------------
-------------------

-----------------------
--7----------------
--L----------------

-----------------------
--7----------------
--L----------------

-----------------------
--0----------------
--L----------------

-----------------------
--0----------------
--L----------------



  W                   H.           Q       E.  E  S E  E  E  Q     
-------------------
--------------------
--------------------0----

-------------------
--------------------
--------------------5----

--7----------------
--L-----------------
--------------------5----

--7----------------
--L-----------------
--0---0----3--3-----5----

--0----------------
--L-----------------
--0---0----3--3-----3----

--0----------------
--L-----------------
--0---0----3--3----------



  W                   E.  E  S E  E  E  Q       W                 
--L----------------
--------------------0----
--L----------------

--L----------------
--------------------5----
--L----------------

--L----------------
--3---L-------------5----
--L----------------

--L----------------
--3---L----0--0-----5----
--L----------------

--L----------------
--1---L----0--0-----3----
--L----------------

-------------------
-----------0--0----------
-------------------



  E.  E  S E  E  E  Q       W                   E  E  E  E  E  E  E  E   
--------------------0----
--L----------------
--------------------------

--------------------5----
--L----------------
--------------------------

--------------------5----
--L----------------
--3--3--3--3--3--3--3--3--

--0---0----3--3-----5----
--L----------------
--3--3--3--3--3--3--3--3--

--0---0----3--3-----3----
--L----------------
--1--1--1--1--1--1--1--1--

--0---0----3--3----------
-------------------
--------------------------



  E  E  E  E  E  Q.        E  Q    E  Q    E  E     H        E  E  Q      
------------------------
------------------------
-----------------------

------------------------
------------------------
-----------------------

--5--5--5--5--5---------
------------------5-----
-----------------------

--5--5--5--5--5---------
--0-------3-------5-----
--------------8--8\----

--3--3--3--3--3---------
--0-------3-------3-----
--------------8--8\----

------------------------
--0-------3-------------
--------------8--8\----



  E  Q    E  Q    E  E     H        E  E  Q        E  Q    E  Q    E  E   
------------------------
-----------------------
------------------------

------------------------
-----------------------
------------------------

------------------5-----
-----------------------
------------------5-----

--0-------3-------5-----
--------------8--8\----
--0-------3-------5-----

--0-------3-------3-----
--------------8--8\----
--0-------3-------3-----

--0-------3-------------
--------------8--8\----
--0-------3-------------



  H        E  E  Q        E  Q    E  Q    E  E     H        E  E  Q      
-----------------------
------------------------
-----------------------

-----------------------
------------------------
-----------------------

-----------------------
------------------5-----
-----------------------

--------------8--8\----
--0-------3-------5-----
--------------8--8\----

--------------8--8\----
--0-------3-------3-----
--------------8--8\----

--------------8--8\----
--0-------3-------------
--------------8--8\----



   E   E   E   E   E   E   E   E      E   E   E   E   E   E   E   E   
--13--13--13--12--12--12--10--10--
--10--10--10--10--10--10--10--10--

--10--10--10--10--10--10--10--10--
--10--10--10--10--10--10--10--10--

----------------------------------
----------------------------------

----------------------------------
----------------------------------

----------------------------------
----------------------------------

----------------------------------
----------------------------------



   E   E   E   E   E   E   E   E      E   E   E   E   E   E   E   E   
--13--13--13--12--12--12--10--10--
--10--10--10--10--10--10--10--10--

--10--10--10--10--10--10--10--10--
--10--10--10--10--10--10--10--10--

----------------------------------
----------------------------------

----------------------------------
----------------------------------

----------------------------------
----------------------------------

----------------------------------
----------------------------------



   E   E   E   E   E   E   E   E      E   E   E   E   E   E   E   E   
--13--13--13--12--12--12--10--10--
--10--10--10--10--10--10--10--10--

--10--10--10--10--10--10--10--10--
--10--10--10--10--10--10--10--10--

----------------------------------
----------------------------------

----------------------------------
----------------------------------

----------------------------------
----------------------------------

----------------------------------
----------------------------------



   E   E   E   E   E   E   E   E      E   E   E   E   E   E   E   E   
--13--13--13--12--12--12--10--10--
--10--10--10--10--10--10--10--10--

--10--10--10--10--10--10--10--10--
--10--10--10--10--10--10--10--10--

----------------------------------
----------------------------------

----------------------------------
----------------------------------

----------------------------------
----------------------------------

----------------------------------
----------------------------------



  E  E  E  E  E  E  E  E     E  E  E  E  E  E  E  E   
--------------------------
--------------------------

--------------------------
--------------------------

--------------------5--5--
--5--5--5--5--5--5--5--5--

--0--0--0--3--3--3--5--5--
--5--5--5--5--5--5--5--5--

--0--0--0--3--3--3--3--3--
--3--3--3--3--3--3--3--3--

--0--0--0--3--3--3--------
--------------------------



  E  E  E  E  E  E  E  E     E  E  E  E  E  E  E  E     E.  E  S E  E  E  Q     
--------------------------
--------------------------
--------------------0----

--------------------------
--------------------------
--------------------5----

--3--3--3-----------5--5--
--5--5--5--5--6--6--6--6--
--------------------5----

--3--3--3--0--0--0--5--5--
--5--5--5--5--7--7--7--7--
--0---0----3--3-----5----

--1--1--1--0--0--0--3--3--
--3--3--3--3--4--4--4--4--
--0---0----3--3-----3----

-----------0--0--0--------
--------------------------
--0---0----3--3----------



  W                   E  E  E  E  E  E  E  E     E  E  E  E  E  E  E  E   
--L----------------
--------------------------
--------------------------

--L----------------
--------------------------
--------------------------

--L----------------
--3--3--3--3--3--3--3--3--
--5--5--5--5--5--5--5--5--

--L----------------
--3--3--3--3--3--3--3--3--
--5--5--5--5--5--5--5--5--

--L----------------
--1--1--1--1--1--1--1--1--
--3--3--3--3--3--3--3--3--

-------------------
--------------------------
--------------------------



  E.  E  S E  E  E  Q       W                   E.  E  S E  E  E  Q     
--------------------0----
--L----------------
--------------------0----

--------------------5----
--L----------------
--------------------5----

--------------------5----
--L----------------
--3---L-------------5----

--0---0----3--3-----5----
--L----------------
--3---L----0--0-----5----

--0---0----3--3-----3----
--L----------------
--1---L----0--0-----3----

--0---0----3--3----------
-------------------
-----------0--0----------



  W                   E.  E  S E  E  E  Q       W                 
--L----------------
--------------------0----
--L----------------

--L----------------
--------------------5----
--L----------------

--L----------------
--------------------5----
--L----------------

--L----------------
--0---0----3--3-----5----
--L----------------

--L----------------
--0---0----3--3-----3----
--L----------------

-------------------
--0---0----3--3----------
-------------------



  E  E  E  E  E  E  E  E     E  E  E  E  E  E  E  E   
--------------------------
--------------------------

--------------------------
--------------------------

--3--3--3--3--3--3--3--3--
--5--5--5--5--5--5--5--5--

--3--3--3--3--3--3--3--3--
--5--5--5--5--5--5--3--3--

--1--1--1--1--1--1--1--1--
--3--3--3--3--3--3--3--3--

--------------------------
--------------------------



   Q.       Q.      E    E      Q.      H         E   
--12b------12------12b--12--
---L------10--------12--

----------------------------
------------------------

----------------------------
------------------------

----------------------------
------------------------

----------------------------
------------------------

----------------------------
------------------------



   Q.       Q.      E   E      W                 
--12b------12------10--10--
---L----------------

---------------------------
--------------------

---------------------------
--------------------

---------------------------
--------------------

---------------------------
--------------------

---------------------------
--------------------



   E   E   E   E   E   E   E   E      E   E   E   E   E   E   E   E   
--13--------------10------13--12--
--13--15--13--15--17--18--17--18--

------10--11--10------13----------
----------------------------------

----------------------------------
----------------------------------

----------------------------------
----------------------------------

----------------------------------
----------------------------------

----------------------------------
----------------------------------



   E  E   H.                             
--22--L\---------------
---------------

-----------------------
---------------

-----------------------
---------------

-----------------------
---------------

-----------------------
---------------

-----------------------
---------------



___________________________________________________________________________
___________________________________________________________________________
___________________________________________________________________________

  
GUIT 2



      W                   W                   W                 
D#
-------------------
-------------------
-------------------

A#
-------------------
-------------------
-------------------

F#
-------------------
-------------------
-------------------

C#
-------------------
-------------------
-------------------

G#
-------------------
-------------------
-------------------

C#
-------------------
-------------------
-------------------



  W                   E  E  E  E  E  E  E  E     E  E  E  E  E  E  E  E   
-------------------
--------------------------
--------------------------

-------------------
--6--5--6--5--6--5--6--5--
--6--5--6--5--6--5--6--5--

-------------------
--------------------------
--------------------------

-------------------
--------------------------
--------------------------

-------------------
--------------------------
--------------------------

-------------------
--------------------------
--------------------------



  E  E  E  E  E  E  E  E     E  E  E  E  E  E  E  E   
--------------------------
--------------------------

--6--5--6--5--6--5--6--5--
--6--5--6--5--6--5--6--5--

--------------------------
--------------------------

--------------------------
--------------------------

--------------------------
--------------------------

--------------------------
--------------------------



  E  E  E  E  E  E  E  E     E  E  E  E  E  E  E  E   
--------------------------
--------------------------

--6--5--6--5--6--5--6--5--
--6--5--6--5--6--5--6--5--

--------------------------
--------------------------

--------------------------
--------------------------

--------------------------
--------------------------

--------------------------
--------------------------



  E  E  E  E  E  E  E  E     E  E  E  E  E  E  E  E     W                 
--------------------------
--------------------------
-------------------

--6--5--6--5--6--5--6--5--
--6--5--6--5--6--5--6--5--
-------------------

--------------------------
--------------------------
-------------------

--------------------------
--------------------------
-------------------

--------------------------
--------------------------
-------------------

--------------------------
--------------------------
-------------------



  W                   W                   W                   W                 
-------------------
-------------------
-------------------
-------------------

-------------------
-------------------
-------------------
-------------------

-------------------
-------------------
-------------------
-------------------

-------------------
-------------------
-------------------
-------------------

-------------------
-------------------
-------------------
-------------------

-------------------
-------------------
-------------------
-------------------



  W                   W                   W                 
-------------------
-------------------
-------------------

-------------------
-------------------
-------------------

-------------------
-------------------
-------------------

-------------------
-------------------
-------------------

-------------------
-------------------
-------------------

-------------------
-------------------
-------------------



  E  E  E  E  E  E  E  E     E  E  E  E  E  Q.                          
--------------------------
------------------------
---------
---------

--------------------------
------------------------
---------
---------

--------------------------
------------------------
---------
---------

--------------------------
------------------------
---------
---------

--8--8-----8--8--8-----8--
--7--7-----7--7---------
---------
---------

--8--8-----8--8--8-----8--
--7--7-----7--7---------
---------
---------



                      E.  E  S E  E  E  Q       W                 
---------
---------
-------------------------
-------------------

---------
---------
-------------------------
-------------------

---------
---------
--------------------5----
--L----------------

---------
---------
--0---0----3--3-----5----
--L----------------

---------
---------
--0---0----3--3-----3----
--L----------------

---------
---------
--0---0----3--3----------
-------------------



  E.  E  S E  E  E  Q       W                   E.  E  S E  E  E  Q     
-------------------------
-------------------
-------------------------

-------------------------
-------------------
-------------------------

--3---L-------------5----
--L----------------
--------------------5----

--3---L----0--0-----5----
--L----------------
--0---0----3--3-----5----

--1---L----0--0-----3----
--L----------------
--0---0----3--3-----3----

-----------0--0----------
-------------------
--0---0----3--3----------



  W                   E  E  E  E  E  E  E  E     E  E  E  E  E  Q.      
-------------------
--------------------------
------------------------

-------------------
--------------------------
------------------------

--L----------------
--3--3--3--3--3--3--3--3--
--5--5--5--5--5---------

--L----------------
--3--3--3--3--3--3--3--3--
--5--5--5--5--5---------

--L----------------
--1--1--1--1--1--1--1--1--
--3--3--3--3--3---------

-------------------
--------------------------
------------------------



  E  E  E  E  E  E  E  E     E  E  E  E  E  E  E  E   
--------------------------
--------------------------

--------------------------
--------------------------

--------------------5-----
--5-----5-----5-----5-----

--0-----0-----0-----5-----
--5-----5-----5-----5-----

--0-----0-----0-----3-----
--3-----3-----3-----3-----

--0-----0-----0-----------
--------------------------



  E  E  E  E  E  E  E  E     E  E  E  Q    E  E  E     E  E  E  E  E  E  E  E   
--------------------------
-------------------------
--------------------------

--------------------------
-------------------------
--6--5--6--5--6--5--6--5--

--------------------5-----
--5-----5-------6--6--6--
--------------------------

--0-----0-----0-----5-----
--5-----5-------7--7--7--
--------------------------

--0-----0-----0-----3-----
--3-----3-------4--4--4--
--------------------------

--0-----0-----0-----------
-------------------------
--------------------------



  E  E  E  E  E  E  E  E     E  E  E  E  E  E  E  E   
--------------------------
--------------------------

--6--5--6--5--6--5--6--5--
--6--5--6--5--6--5--6--5--

--------------------------
--------------------------

--------------------------
--------------------------

--------------------------
--------------------------

--------------------------
--------------------------



  E  E  E  E  E  E  E  E     E  E  E  E  E  E  E  E   
--------------------------
--------------------------

--6--5--6--5--6--5--6--5--
--6--5--6--5--6--5--6--5--

--------------------------
--------------------------

--------------------------
--------------------------

--------------------------
--------------------------

--------------------------
--------------------------



  E  E  E  E  E  E  E  E     E  E  E  E  E  E  E  E   
--------------------------
--------------------------

--6--5--6--5--6--5--6--5--
--6--5--6--5--6--5--6--5--

--------------------------
--------------------------

--------------------------
--------------------------

--------------------------
--------------------------

--------------------------
--------------------------



  E  E  E  E  E  E  E  E     W                   W                 
--------------------------
-------------------
-------------------

--6--5--6--5--6--5--6--5--
-------------------
-------------------

--------------------------
-------------------
-------------------

--------------------------
-------------------
-------------------

--------------------------
-------------------
-------------------

--------------------------
-------------------
-------------------



  W                   W                   W                   W                 
-------------------
-------------------
-------------------
-------------------

-------------------
-------------------
-------------------
-------------------

-------------------
-------------------
-------------------
-------------------

-------------------
-------------------
-------------------
-------------------

-------------------
-------------------
-------------------
-------------------

-------------------
-------------------
-------------------
-------------------



  W                   W                   E  E  E  E  E  E  E  E   
-------------------
-------------------
--------------------------

-------------------
-------------------
--------------------------

-------------------
-------------------
--------------------------

-------------------
-------------------
--------------------------

-------------------
-------------------
--8--8-----8--8--8-----8--

-------------------
-------------------
--8--8-----8--8--8-----8--



  E  E  E  E  E  Q.                                              
------------------------
---------
---------
---------
---------

------------------------
---------
---------
---------
---------

------------------------
---------
---------
---------
---------

------------------------
---------
---------
---------
---------

--7--7-----7--7---------
---------
---------
---------
---------

--7--7-----7--7---------
---------
---------
---------
---------



  E.  E  S E  E  E  Q       W                   E.  E  S E  E  E  Q     
-------------------------
-------------------
-------------------------

-------------------------
-------------------
-------------------------

--------------------5----
--L----------------
--3---L-------------5----

--0---0----3--3-----5----
--L----------------
--3---L----0--0-----5----

--0---0----3--3-----3----
--L----------------
--1---L----0--0-----3----

--0---0----3--3----------
-------------------
-----------0--0----------



  W                   E.  E  S E  E  E  Q       W                 
-------------------
-------------------------
-------------------

-------------------
-------------------------
-------------------

--L----------------
--------------------5----
--L----------------

--L----------------
--0---0----3--3-----5----
--L----------------

--L----------------
--0---0----3--3-----3----
--L----------------

-------------------
--0---0----3--3----------
-------------------



  E  E  E  E  E  E  E  E     E  E  E  E  E  Q.        W                 
--------------------------
------------------------
-------------------

--------------------------
------------------------
-------------------

--3--3--3--3--3--3--3--3--
--5--5--5--5--5---------
-------------------

--3--3--3--3--3--3--3--3--
--5--5--5--5--5---------
-------------------

--1--1--1--1--1--1--1--1--
--3--3--3--3--3---------
-------------------

--------------------------
------------------------
-------------------



  W                   W                                                         
-------------------
-------------------
-------------------
-------------------

-------------------
-------------------
-------------------
-------------------

-------------------
-------------------
-------------------
-------------------

-------------------
-------------------
-------------------
-------------------

-------------------
-------------------
-------------------
-------------------

-------------------
-------------------
-------------------
-------------------



                                          W                 
-------------------
-------------------
-------------------

-------------------
-------------------
-------------------

-------------------
-------------------
-------------------

-------------------
-------------------
-------------------

-------------------
-------------------
-------------------

-------------------
-------------------
-------------------



  E  Q    E  Q    E  E     H        E  E  Q        E  Q    E  Q    E  E   
------------------------
-----------------------
------------------------

------------------------
-----------------------
------------------------

------------------5-----
-----------------------
------------------5-----

--0-------3-------5-----
--------------8--8\----
--0-------3-------5-----

--0-------3-------3-----
--------------8--8\----
--0-------3-------3-----

--0-------3-------------
--------------8--8\----
--0-------3-------------



  H        E  E  Q        E  Q    E  Q    E  E     H        E  E  Q      
-----------------------
------------------------
-----------------------

-----------------------
------------------------
-----------------------

-----------------------
------------------5-----
-----------------------

--------------8--8\----
--0-------3-------5-----
--------------8--8\----

--------------8--8\----
--0-------3-------3-----
--------------8--8\----

--------------8--8\----
--0-------3-------------
--------------8--8\----



  E  Q    E  Q    E  E     H        E  E  Q        E  E  E  E  E  E  E  E   
------------------------
-----------------------
--------------------------

------------------------
-----------------------
--------------------------

------------------5-----
-----------------------
--------------------5--5--

--0-------3-------5-----
--------------8--8\----
--0--0--0--3--3--3--5--5--

--0-------3-------3-----
--------------8--8\----
--0--0--0--3--3--3--3--3--

--0-------3-------------
--------------8--8\----
--0--0--0--3--3--3--------



  E  E  E  E  E  E  E  E     E  E  E  E  E  E  E  E   
--------------------------
--------------------------

--------------------------
--------------------------

--5--5--5--5--5--5--5--5--
--3--3--3-----------5--5--

--5--5--5--5--5--5--5--5--
--3--3--3--0--0--0--5--5--

--3--3--3--3--3--3--3--3--
--1--1--1--0--0--0--3--3--

--------------------------
-----------0--0--0--------



  E  E  E  E  E  E  E  E     E.  E  S E  E  E  Q       W                 
--------------------------
-------------------------
-------------------

--------------------------
-------------------------
-------------------

--5--5--5--5--6--6--6--6--
--------------------5----
--L----------------

--5--5--5--5--7--7--7--7--
--0---0----3--3-----5----
--L----------------

--3--3--3--3--4--4--4--4--
--0---0----3--3-----3----
--L----------------

--------------------------
--0---0----3--3----------
-------------------



  E  E  E  E  E  E  E  E     E  E  E  E  E  E  E  E     E.  E  S E  E  E  Q     
--------------------------
--------------------------
-------------------------

--------------------------
--------------------------
-------------------------

--3--3--3--3--3--3--3--3--
--5--5--5--5--5--5--5--5--
--------------------5----

--3--3--3--3--3--3--3--3--
--5--5--5--5--5--5--5--5--
--0---0----3--3-----5----

--1--1--1--1--1--1--1--1--
--3--3--3--3--3--3--3--3--
--0---0----3--3-----3----

--------------------------
--------------------------
--0---0----3--3----------



  W                   E.  E  S E  E  E  Q       W                 
-------------------
-------------------------
-------------------

-------------------
-------------------------
-------------------

--L----------------
--3---L-------------5----
--L----------------

--L----------------
--3---L----0--0-----5----
--L----------------

--L----------------
--1---L----0--0-----3----
--L----------------

-------------------
-----------0--0----------
-------------------



  E.  E  S E  E  E  Q       W                   E  E  E  E  E  E  E  E   
-------------------------
-------------------
--------------------------

-------------------------
-------------------
--------------------------

--------------------5----
--L----------------
--3--3--3--3--3--3--3--3--

--0---0----3--3-----5----
--L----------------
--3--3--3--3--3--3--3--3--

--0---0----3--3-----3----
--L----------------
--1--1--1--1--1--1--1--1--

--0---0----3--3----------
-------------------
--------------------------



  E  E  E  E  E  E  E  E     E  E  E  E  E  E  E  E   
--------------------------
--------------------------

--------------------------
--------------------------

--5--5--5--5--5--5--5--5--
--7--7--7--7--7--7--7--7--

--5--5--5--5--5--5--5--5--
--7--7--7--7--7--7--7--7--

--3--3--3--3--3--3--3--3--
--5--5--5--5--5--5--5--5--

--------------------------
--------------------------



  E  E  E  E  E  E  E  E     E  E  E  E  E  E  E  E   
--------------------------
--------------------------

--------------------------
--------------------------

--6--6--6--6--6--6--6--6--
--5--5--5--5--5--5--5--5--

--7--7--7--7--7--7--7--7--
--5--5--5--5--5--5--5--5--

--4--4--4--4--4--4--4--4--
--3--3--3--3--3--3--3--3--

--------------------------
--------------------------



  E  E  E  E  E  E  E  E     E  E  E  E  E  E  E  E   
--------------------------
--------------------------

--------------------------
--------------------------

--4--4--4--4--4--4--4--4--
--3--3--3--3--3--3--3--3--

--5--5--5--5--5--5--5--5--
--3--3--3--3--3--3--3--3--

--2--2--2--2--2--2--2--2--
--1--1--1--1--1--1--1--1--

--------------------------
--------------------------



  E  E  E  E  E  E  E  E     Q    H.                             
--------------------------
--------------------
---------------

--------------------------
--------------------
---------------

--5--5--5--5--5--6--6--6--
--7-----------------
---------------

--5--5--5--5--5--7--7--7--
--7-----------------
---------------

--3--3--3--3--3--4--4--4--
--5-----------------
---------------

--------------------------
--------------------
---------------

















Duration Legend
---------------
W - whole
H - half
Q - quarter
E - 8th
S - 16th
T - 32nd
X - 64th
. - note dotted

-n-
  - n-tuplets


Tablature Legend
----------------
L - tied note
x - dead note
g - grace note
(n) - ghost note
> - accentuded note
NH - natural harmonic
AH - artificial harmonic
TH - tapped harmonic
SH - semi harmonic
PH - pitch harmonic
h - hammer on
p - pull off
b - bend
br - bendRelease
pb - preBend
pbr - preBendRelease
brb - bendReleaseBend
\n/ - tremolo bar dip
\n - tremolo bar dive
-/n - tremolo bar Release up
/n\ - tremolo bar inverted dip
/n - tremolo bar return
-\n - tremolo bar Release down
S - shift slide
s - legato slide
/ -  slide into from below or out of upwards
\ -  slide into from above or out of downwards
~ - vibrato
W - wide vibrato
tr - trill
TP - tremolo picking
T - tapping
S - slap
P - pop
< - fade in
^ - brush up
v - brush down

 


/
How To Set Up Higher Praise As Your Home Page
Copyright 1999, Higher Praise HigherPraise,Inc. All rights reserved. Terms of Use

Enjoy A Life Changing Experience

 
 
 
HigherPraise, Higher Praise, HigherPraise, Higher Praise, HigherPraise

Members..Sign Up. LogIn

 
 

Higher Praise Other Sites
 
 

HigherPraise.org/
Praise And Worship
www.higherpraise.org

HigherPraise.net
Christian Resources
www.higherpraise.net

HigherPraiseTube.com
Videos And Audios
www.higherpraisetube.com.


ChristianLyrics.org

Lyrics And Chrords
www.christianlyrics.org

ChristianChordsLyrics

Lyrics And Chrords
www.christianchordslyrics.com

ChristianChordLyrics

Lyrics And Chrords
www.christianchordlyrics.com

WorshipLyrics.org
10.000 Illustrations
www.worshiplyrics.org

WorshipLyrics.net
10.000 Illustrations
www.worshiplyrics.net

PraiseLyrics.com
PowerPoint Lyrics

www.praiselyrics.com

PraiseLyrics.org
PowerPoint Lyrics

www.praiselyrics.org

1GodTube.com
Chistian Videos

www1godtube..com

OneGodTube.com
Chistian Videos

www.onegodtube..com

 

/
Copyright 1999 - 2019, Higher Praise™ HigherPraise™,Inc. All rights reserved. Terms of Use