Higher Praise - Guitar Chords, Lyrics  GuitarTabs -  Praise nad Worship Music And Christian Songs

Higher Praise - Guitar Tabs, Guitar Chords, Lyrics
   Lyrics, Chords And Tabs
   Popular Lyrics Chords Tab
   Power Point Lyrics
   Praise & Worship Music
   Christian Music Videos
   15900 Videos & Audios
   Midi Files
   Worship Questions
   Christmas Chords, Lyrics
   Lyrics, Chords Tabs Rated

Sermon Outlines And Audio Sermons
   9344 Sermon Outlines
   N.T. Sermon Outlines
   O.T. Sermon Outlines
   Special Guest Outlines
   10.000 Illustrations
   Sunday School Studies
   Bible College Studies
   Greatest Preachers
   Bible Research Tools
Audio Sermons
   2895 Audio Sermons
   85 Sermon Videos
   291 Special Guests Serm

   Complete Audio Bible
Higher Praise Sunday School Teaching
   Children's NT Studies
   Children's OT Studies

   98 Children's Midis
   Gospel For Kids Movie
   Children's JESUS Film
Higher Praise Christian Video Library ,Videos
   Christian Television
   TBN TV Live
   15,000 Videos - HP Tube
   712 Youth Music Vids
  Christian Video Library
   Praise Videos #1 & #2
   85 Sermon Videos
   Prophecy Film -Videos
   JESUS Film -Video
   Childrens JESUS Film
   Gospel For Kids Movie
   Passion Of The Christ
   Noah, Sodom, Sinai, Ark
   Tsunami Videos Photos
News And Information
   Testimonies
   Submit Lyrics, Tabs, Serm
   10.000 Illustrations
   Bible College Course
   Clipart & Web Graphics
   Greatest Preachers
   Complete Talking Bible
   Christian Chat Rooms
   Links Church Resource
   HP Statement Of Faith
Download Clipart
   Audio Sermons
   Clipart & Web Graphics
   Church Administration
   Bible Study Software
   Screen Savers Software
   Verse A Day Software
   Educational Games
   Trade Center Photos

   Soft. Search Engine
Higher Praise News
   Current News
    Archived News
   Submit News
   Newsletter   Higher Praise Interact Prayer
   Prayer For All Needs
   
Submit Lyrics, Sermons
   
Contact Higher Praise
   
Advertising 
   Privacy Policy
//
He Died For You,  Click For Answer! This Is Who Jesus Is Video

'
 
0-9 A B C D E F G H I J K L M N O P Q R S T U V W X Y Z
.

//
Click For Printable...Version Of This File
 

At Your Best


by Mymp





At your best
MYMP

sEQUENCE:
vERSE 1 , CHORUS , VERSE 2 , CHORUS , ENDING

Verse 1
         (G)              (Am)              (D)            
e
---------------3------
--------0----
----------------------2---------2---2--2-2-

B
--------3---3T3--3-T--
-1---1T1--1-T
------3-----3T---3-----3----T---3---3T-3--3

G
--------0---0A-----A--
-2---2A2----A
------2-----2A---2----------A---2---2A-2---

D
-------------P-----P--
-2----P2----P
------0------P---0----------P---0----P-0---

A
----------------------
-------------
-------------------------------------------

E
--------3-----3-------
-------------
-------------------------------------------

    When i    feel  what  i   feel       Sometimes its hard to tell you so
                       
    
        (Am7)                     (Am in 5th fret)        (Bm7) 
e
-----------------------0---
--------------5---------
--2-2-----2-------------3--

B
-------1-1T--1-----------1T
-----5-5T-5-----5------T
--3-3T-3---3--T--3-3T--5-5T

G
-------0-0A--0------------A
-----5-5A-5------------A
-----A-2------A--2-2A--5--A

D
----------P---------------P
--------P--------------P
-----P--------P-----P-----P

A
-------0-----0-------------
------------------------
--2----2---------2-----3---

E
---------------------------
-----5----5-------------
---------------------------
      
    you may not be in the mood  to  learn   what you think you   know

                                                                           fast
         (G)               (Am)               (D)                          
---

e
---------------3---
-------------0------
----------------2------------2----2----

B
--------3---3T3--3T
------1---1T1--1---T
----3---3T---3----3----T-----3----3T---

G
--------0---0A----A
------2---2A2------A
----2---2A---2---------A-----------A---

D
-------------P----P
------2----P2------P
----0----P---0---------P-----0----0P---

A
-------------------
--------------------
---------------------------------------

E
--------3-----3----
--------------------
---------------------------------------
 
  there are  times    when i find      you   want to keep yourself  from me


      (Dm)    ( Am in 5th fret)                                        (Bm7)
e
-----1---
---------------------------------------------5--------
--2--2----2---2

B
-----3-3T
-------------T----------5---T--------5--5T-5---5------
--3--3T-3--3--3

G
------2-A
----5-----5--A-------5----5-A--------5--5A-5----------
------A-2------

D
-----0--P
----7-----7--P-------7------P------------P------------
------P--------

A
---------
------------------------------------------------------
--2-----2-----2

E
---------
----5----------------5---------------5-----5----------
---------------

          when i don't have the strength i'm just a mirror ofwhat i  see


Chorus  : USE PLUCKING
 
    (Bm)   ( C in 3rd fret)
e
---2--2-
-----3-3----------

B
---3--3T
--5---------------

G
-------A
--5---------------

D
-------P
------------------

A
---2----
--3---------------

E
--------
------------------


      Am7                          Bm7
But  at  your  best  you  are  loved

         Am7                             Bm7          ( Bm7 )
your  a  positive  motivating  force  within  my  life

              (C)               (Bm7)
e
----------------1-----------------2-----------------5------------

B
-------------1-----------------3-----------------6----6----------

G
-------------------------------2-----------------7------7--------

D
-------------2-----------------4-----------------7---------------

A
-------------3-----------------2-----------------5---------------

E
-----------------------------------------------------------------

 should  you  ever  feel  the  need  to  wonder  why

                       (5th fret)             (5th fret) 
           GM7             Am        GM7          Am           
Let  me  know,  let  me  know.....       .......                



ENDING  :
e
------------------0--------------0-

B
--------------0------0-------0-----

G
------------2------------2---------

D
---------3-------------------------

A
------3----------------------------

E
---1-------------------------------


VERSE  2                                                       
           G                 Am
When   you  feel  what  you  feel  
           D                        D
Oh, how  hard  for  me  to  understand  
                                       (5th fret)
     Am7                                 Am                          Bm7
so  many  things  have  taken  place  before  this  love  affair  began
             G        Am          
But  if  you  feel, oh  like  i  feel
    D
confusion  can  give  away  to  doubt
      Am7
for  there  are  times  when  i  fall  
         (5th fret)
            Am
short  of  what  i say
         Bm7
what  i  say  im  all  about

all  about
 


/
How To Set Up Higher Praise As Your Home Page
Copyright 1999, Higher Praise HigherPraise,Inc. All rights reserved. Terms of Use

Enjoy A Life Changing Experience

 
 
 
HigherPraise, Higher Praise, HigherPraise, Higher Praise, HigherPraise

Members..Sign Up. LogIn

 
 

Higher Praise Other Sites
 
 

HigherPraise.org/
Praise And Worship
www.higherpraise.org

HigherPraise.net
Christian Resources
www.higherpraise.net

HigherPraiseTube.com
Videos And Audios
www.higherpraisetube.com.


ChristianLyrics.org

Lyrics And Chrords
www.christianlyrics.org

ChristianChordsLyrics

Lyrics And Chrords
www.christianchordslyrics.com

ChristianChordLyrics

Lyrics And Chrords
www.christianchordlyrics.com

WorshipLyrics.org
10.000 Illustrations
www.worshiplyrics.org

WorshipLyrics.net
10.000 Illustrations
www.worshiplyrics.net

PraiseLyrics.com
PowerPoint Lyrics

www.praiselyrics.com

PraiseLyrics.org
PowerPoint Lyrics

www.praiselyrics.org

1GodTube.com
Chistian Videos

www1godtube..com

OneGodTube.com
Chistian Videos

www.onegodtube..com

 

/
Copyright 1999 - 2019, Higher Praise™ HigherPraise™,Inc. All rights reserved. Terms of Use