Higher Praise - Guitar Chords, Lyrics  GuitarTabs -  Praise nad Worship Music And Christian Songs

Higher Praise - Guitar Tabs, Guitar Chords, Lyrics
   Lyrics, Chords And Tabs
   Popular Lyrics Chords Tab
   Power Point Lyrics
   Praise & Worship Music
   Christian Music Videos
   15900 Videos & Audios
   Midi Files
   Worship Questions
   Christmas Chords, Lyrics
   Lyrics, Chords Tabs Rated

Sermon Outlines And Audio Sermons
   9344 Sermon Outlines
   N.T. Sermon Outlines
   O.T. Sermon Outlines
   Special Guest Outlines
   10.000 Illustrations
   Sunday School Studies
   Bible College Studies
   Greatest Preachers
   Bible Research Tools
Audio Sermons
   2895 Audio Sermons
   85 Sermon Videos
   291 Special Guests Serm

   Complete Audio Bible
Higher Praise Sunday School Teaching
   Children's NT Studies
   Children's OT Studies

   98 Children's Midis
   Gospel For Kids Movie
   Children's JESUS Film
Higher Praise Christian Video Library ,Videos
   Christian Television
   TBN TV Live
   15,000 Videos - HP Tube
   712 Youth Music Vids
  Christian Video Library
   Praise Videos #1 & #2
   85 Sermon Videos
   Prophecy Film -Videos
   JESUS Film -Video
   Childrens JESUS Film
   Gospel For Kids Movie
   Passion Of The Christ
   Noah, Sodom, Sinai, Ark
   Tsunami Videos Photos
News And Information
   Testimonies
   Submit Lyrics, Tabs, Serm
   10.000 Illustrations
   Bible College Course
   Clipart & Web Graphics
   Greatest Preachers
   Complete Talking Bible
   Christian Chat Rooms
   Links Church Resource
   HP Statement Of Faith
Download Clipart
   Audio Sermons
   Clipart & Web Graphics
   Church Administration
   Bible Study Software
   Screen Savers Software
   Verse A Day Software
   Educational Games
   Trade Center Photos

   Soft. Search Engine
Higher Praise News
   Current News
    Archived News
   Submit News
   Newsletter   Higher Praise Interact Prayer
   Prayer For All Needs
   
Submit Lyrics, Sermons
   
Contact Higher Praise
   
Advertising 
   Privacy Policy
//
He Died For You,  Click For Answer! This Is Who Jesus Is Video

'
 
0-9 A B C D E F G H I J K L M N O P Q R S T U V W X Y Z
.

//
Click For Printable...Version Of This File
 

Drowning


by Mxpx




----------------------------------------------------------------------------
			     Drowning - MXPX
----------------------------------------------------------------------------

Email:no

Tuning:EADgbe

CHords: E5 C#5 A5 B5
NOTE: THese are the basic chords.  Feel free to play in higher positions.


INTRO:

     Guitar 1:(or bass--not shown)
     E5                               C#5
e
----------------------------------
------------------------------------

B
----------------------------------
------------------------------------

G
----------------------------------
--6---------------------------------

D
----2-----------------------------
--6---------------------------------

A
----2-----------------------------
--4---------------------------------

E
----0-----------------------------
------------------------------------

      LET RING





     Guitar 2:
e
----------------------------------
---------------------------

B
----------------------------------
---------------------------

G
----------------------------------
---------------------------

D
----6-6---6-4-4---4-7--7---7--6-6-
-6-6---4--6--4--6-6---4--6-

A
----^-^-----^-^-----^--^------^-^-
---------------------------

E
----------------------------------
-^-^------^-----^-^------^-




     Guitar 1
      A5                               B5
e
----------------------------------
------------------------------------

B
----------------------------------
------------------------------------

G
----2-----------------------------
--4---------------------------------

D
----2-----------------------------
--4---------------------------------

A
----0-----------------------------
--2---------------------------------

E
----------------------------------
------------------------------------

      LET RING




     Guitar 2
e
----------------------------------
--------------------------

B
----------------------------------
--------------------------

G
----------------------------------
--------------------------

D
----6-6---6-4-4---4-7--7---7--6-6-
-7-7---6--7--6--7-7---6--7

A
----^-^-----^-^-----0--0---0--^-^-
--------------------------

E
----------------------------------
-^-^------^-----^-^------^





 VERSE 1:

    Switch the light off go to bed    THere's
    E5
e
--------------------------------------

B
--------------------------------------

G
--------------------------------------

D
--2----2-2----2----2-2---2---2-2----2-

A
--2----2-2----2----2-2---2---2-2----2-

E
--0----0-0----0----0-0---0---0-0----0-


  
    No more    room inside my head
    G#5
e
--------------------------------------

B
--------------------------------------

G
--------------------------------------

D
--6----6-6----6----6-6---6---6-6----6-

A
--6----6-6----6----6-6---6---6-6----6-

E
--4----4-4----4----4-4---4---4-4----4-



    The world around me slowly fades away
    C#5
e
--------------------------------------

B
--------------------------------------

G
--6----6-6----6----6-6----------------

D
--6----6-6----6----6-6---7---7-7----7-

A
--4----4-4----4----4-4---7---7-7----7-

E
-------------------------5---5-5----5-


    Guitar 1:
    A5
e
--------------------------------------

B
--------------------------------------

G
--------------------------------------

D
--7---7-7----7----7-7----7---7-7----7-

A
--7---7-7----7----7-7----7---7-7----7-

E
--5---5-5----5----5-5----5---5-5----5-


    Guitar 2:
e
--------------------------------------

B
--------------------------------------

G
--------------------------------------

D
--6-6----6----4-4---4----7--7---7--6-6

A
--^-^---------^-^--------^--^------^-^

E
--------------------------------------





    As I close my eyes and think     THE
e
--------------------------------------

B
--------------------------------------

G
--------------------------------------

D
--2----2-2----2----2-2---2---2-2----2-

A
--2----2-2----2----2-2---2---2-2----2-

E
--0----0-0----0----0-0---0---0-0----0-


   shadows blot my memories
e
--------------------------------------

B
--------------------------------------

G
--------------------------------------

D
--6----6-6----6----6-6---6---6-6----6-

A
--6----6-6----6----6-6---6---6-6----6-

E
--4----4-4----4----4-4---4---4-4----4-



   Of all the things I've tried and failed today
e
--------------------------------------

B
--------------------------------------

G
--6----6-6----6----6-6----------------

D
--6----6-6----6----6-6---7---7-7----7-

A
--4----4-4----4----4-4---7---7-7----7-

E
-------------------------5---5-5----5-





    Guitar 1:              Please don't
e
--------------------------------------

B
--------------------------------------

G
--------------------------------------

D
--7---7-7----7----7-7----7---7-7----7-

A
--7---7-7----7----7-7----7---7-7----7-

E
--5---5-5----5----5-5----5---5-5----5-


    Guitar 2:                         
e
--------------------------------------

B
--------------------------------------

G
--------------------------------------

D
--6-6----6----4-4---4----7--7---7--6-6

A
--^-^---------^-^--------^--^------^-^

E
--------------------------------------





    GUitar 1 :
    GO!
e
----------------------------------------

B
----------------------------------------

G
----------------------------------------

D
--9---9-9----9----9-9----9---9-9----9---

A
--9---9-9----9----9-9----9---9-9----9---

E
--7---7-7----7----7-7----7---7-7----7---



    Guitar 2:                         
e
----------------------

B
----------------------

G
--8-8----6----9-9---8-

D
----------------------

A
--^-^---------^-^---^-

E
----------------------


PRECHORUS:

      First      I need to           know 
e
----------------------------------
--------------------

B
----------------------------------
--------------------

G
----2-----------------------------
--4-----------------

D
----2-------------2---------------
--4-----------------

A
----0-------------2---------------
--2-----------------

E
------------------0---------------
--------------------


   				 Guitar 2:                         
				e
-----------------------

				B
-----------------------

				G
--8-8----6----9-9---8--

				D
-----------------------

				A
--^-^---------^-^---^--

				E
-----------------------




  if all the lies you said to me were true
e
----------------------------------
---------------------

B
----------------------------------
---------------------

G
------------------9---------------
--8------------------

D
----7-------------9---------------
--9------------------

A
----7-------------7---------------
--9------------------

E
----5-------------0---------------
--7------------------

                                     

And the face that I saw wasn't really you             I feel like
e
----------------------------------
---------------------

B
----------------------------------
---------------------

G
------------------9---------------
--4-4-4-4-4-4-4-4-4-4

D
----7-------------9---------------
--4-4-4-4-4-4-4-4-4-4

A
----7-------------7---------------
--2-2-2-2-2-2-2-2-2-2

E
----5-------------0---------------
---------------------


                                     PM-------------------


HINT: the lower on the fretboard the more crunch your chords will have.


CHORUS:


   Drowning
e
--------------------------------------

B
--------------------------------------

G
--------------------------------------

D
--2----2-2----2----2-2---2---2-2----2-

A
--2----2-2----2----2-2---2---2-2----2-

E
--0----0-0----0----0-0---0---0-0----0-


    deep down in the sea    I feel like
e
--------------------------------------

B
--------------------------------------

G
--------------------------------------

D
--4----4-4----4----4-4---4---4-4----4-

A
--4----4-4----4----4-4---4---4-4----4-

E
--2----2-2----2----2-2---2---2-2----2-


  Drowning                    don't bother 
e
--------------------------------------

B
--------------------------------------

G
--2----2-2----2----2-2---2----2-2-----

D
--2----2-2----2----2-2---2----2-2-----

A
--0----0-0----0----0-0---0----0-0-----

E
--------------------------------------




   coming after me            I feel like 
e
--------------------------------------

B
--------------------------------------

G
--------------------------------------

D
--4----4-4----4----4-4---4---4-4----4-

A
--4----4-4----4----4-4---4---4-4----4-

E
--2----2-2----2----2-2---2---2-2----2-


 Drowning        Way    Down       in
e
--------------------------------------

B
--------------------------------------

G
--6-----------------------------------

D
--6-------------------6---------------

A
--4-------------------6---------------

E
----------------------4---------------
  
 PM THROUGHOUT



     My        False           Memories  I feel like 
e
--------------------------------
---------------------

B
--------------------------------
---------------------

G
----2---------------------------
--4----------/6-------

D
----2---------------------------
--4----------/6-------

A
----0---------------------------
--2----------/4-------

E
--------------------------------
-------------/4-------



BACK TO INTRO:
      

     DROWNING

     Guitar 1:(or bass--not shown)
e
----------------------------------
----------------------------------

B
----------------------------------
----------------------------------

G
----------------------------------
--6-------------------------------

D
----2-----------------------------
--6-------------------------------

A
----2-----------------------------
--4-------------------------------

E
----0-----------------------------
----------------------------------

      LET RING

     Guitar 2:
e
----------------------------------
---------------------------

B
----------------------------------
---------------------------

G
----------------------------------
---------------------------

D
----6-6---6-4-4---4-7--7---7--6-6-
-6-6---4--6--4--6-6---4--6-

A
----^-^-----^-^-----^--^------^-^-
---------------------------

E
----------------------------------
-^-^------^-----^-^------^-







     Guitar 1
e
----------------------------------
-----------------------------------

B
----------------------------------
-----------------------------------

G
----2-----------------------------
--4--------------------------------

D
----2-----------------------------
--4--------------------------------

A
----0-----------------------------
--2--------------------------------

E
----------------------------------
-----------------------------------

      LET RING

     Guitar 2
e
----------------------------------
--------------------------

B
----------------------------------
--------------------------

G
----------------------------------
--------------------------

D
----6-6---6-4-4---4-7--7---7--6-6-
-7-7---6--7--6--7-7---6--7

A
----^-^-----^-^-----0--0---0--^-^-
--------------------------

E
----------------------------------
-^-^------^-----^-^------^




VERSE 2:
E5
With blankets wrapped around so tight
G#5
That in my dreams my hands are tied
C#5             A5
Now I'm slow-mo running for the door
E5                               G#5
I've got no clue where it leads, but my lungs need some air to breathe
C#5                A5
My eyelids shutter then fall to the floor


Here's the rest of the song up to the breakdown:
PRECHORUS: A5 E5 B5x2
CHORUS: you know the chords now play them.
INTRO:

BREAKDOWN:


     We all reach that dark and fragile destination sometimes

     A5                                C#5
e
----------------------------------
-------------------------

B
----------------------------------
-------------------------

G
----2-----------------------------
--6----------------------

D
----2-----------------------------
--6----------------------

A
----0-----------------------------
--4----------------------

E
----------------------------------
-------------------------


PM throughout

     Looking for direction for the light to fill our eyes

    E5(7th fret)                    B5
e
--------------------------------------------------------

B
--------------------------------------------------------

G
---9----------------------------------------------------

D
---9------------------------------9---------------------

A
---7------------------------------9---------------------

E
----------------------------------7---------------------

 PM throughout

    Fill our eyes

    A5(5th fret)                    Am(barred 5th fret)
e
----------------------------------5--------------------

B
----------------------------------5--------------------

G
----------------------------------5--------------------

D
---7------------------------------7--------------------

A
---7------------------------------7--------------------

E
---5------------------------------5--------------------

    PM-----------------------------
Let ring


  Guitars 1&2:

e
----------------------------------
-----------

B
----------------------------------
-----------

G
----------------------------------
--6--6--6--

D
----2--2-----2--2--2----x-x-x-x---
--6--6--6--

A
----2--2-----2--2--2----x-x-x-x---
--4--4--4--

E
----0--0-----0--0--0----x-x-x-x---
-----------

                     .


e
----------------------------------
-----------

B
----------------------------------
-----------

G
----------------------------------
-----------

D
----7--7-----7--7--7----x-x-x-x-x-
--x--x--x--

A
----7--7-----7--7--7----x-x-x-x-x-
--x--x--x--

E
----5--5-----5--5--5----x-x-x-x-x-
--x--x--x--
Repeat
                     .

 PRECHORUS:

                        Please don't
  NO guitar
e
---------------------------------------

B
---------------------------------------

G
---------------------------------------

D
---------------------------------------

A
---------------------------------------

E
---------------------------------------




    GUitar 1 :

      GO!
e
----------------------------------
-----------

B
----------------------------------
-----------

G
----------------------------------
-----------

D
----7--7-----7--7--7--------------
-----------

A
----7--7-----7--7--7--------------
-----------

E
----5--5-----5--5--5--------------
-----------

		     .

   
PRECHORUS:

      First      I need to           know 
e
----------------------------------
--------------------

B
----------------------------------
--------------------

G
----2-----------------------------
--4-----------------

D
----2-------------2---------------
--4-----------------

A
----0-------------2---------------
--2-----------------

E
------------------0---------------
--------------------


   				 



  if all the lies you said to me were true
e
----------------------------------
---------------------

B
----------------------------------
---------------------

G
------------------9---------------
--8------------------

D
----7-------------9---------------
--9------------------

A
----7-------------7---------------
--9------------------

E
----5-------------0---------------
--7------------------

                                     

And the face that I saw wasn't really you             I feel like
e
----------------------------------
---------------------

B
----------------------------------
---------------------

G
------------------9---------------
--4-4-4-4-4-4-4-4-4-4

D
----7-------------9---------------
--4-4-4-4-4-4-4-4-4-4

A
----7-------------7---------------
--2-2-2-2-2-2-2-2-2-2

E
----5-------------0---------------
---------------------


                                     PM-------------------


  BACK TO CHORUS!:
INTRO becomes OUTRO 



  . stab this chord and silence immediately

  ^ accent this note

 /  slide up

 \  slide down

 h  hammer-on

 p  pull-off

 ~  vibrato

 +  harmonic

 x  Mute note
===============================================================================

 


/
How To Set Up Higher Praise As Your Home Page
Copyright 1999, Higher Praise HigherPraise,Inc. All rights reserved. Terms of Use

Enjoy A Life Changing Experience

 
 
 
HigherPraise, Higher Praise, HigherPraise, Higher Praise, HigherPraise

Members..Sign Up. LogIn

 
 

Higher Praise Other Sites
 
 

HigherPraise.org/
Praise And Worship
www.higherpraise.org

HigherPraise.net
Christian Resources
www.higherpraise.net

HigherPraiseTube.com
Videos And Audios
www.higherpraisetube.com.


ChristianLyrics.org

Lyrics And Chrords
www.christianlyrics.org

ChristianChordsLyrics

Lyrics And Chrords
www.christianchordslyrics.com

ChristianChordLyrics

Lyrics And Chrords
www.christianchordlyrics.com

WorshipLyrics.org
10.000 Illustrations
www.worshiplyrics.org

WorshipLyrics.net
10.000 Illustrations
www.worshiplyrics.net

PraiseLyrics.com
PowerPoint Lyrics

www.praiselyrics.com

PraiseLyrics.org
PowerPoint Lyrics

www.praiselyrics.org

1GodTube.com
Chistian Videos

www1godtube..com

OneGodTube.com
Chistian Videos

www.onegodtube..com

 

/
Copyright 1999 - 2019, Higher Praise™ HigherPraise™,Inc. All rights reserved. Terms of Use