Higher Praise - Guitar Chords, Lyrics  GuitarTabs -  Praise nad Worship Music And Christian Songs

Higher Praise - Guitar Tabs, Guitar Chords, Lyrics
   Lyrics, Chords And Tabs
   Popular Lyrics Chords Tab
   Power Point Lyrics
   Praise & Worship Music
   Christian Music Videos
   15900 Videos & Audios
   Midi Files
   Worship Questions
   Christmas Chords, Lyrics
   Lyrics, Chords Tabs Rated

Sermon Outlines And Audio Sermons
   9344 Sermon Outlines
   N.T. Sermon Outlines
   O.T. Sermon Outlines
   Special Guest Outlines
   10.000 Illustrations
   Sunday School Studies
   Bible College Studies
   Greatest Preachers
   Bible Research Tools
Audio Sermons
   2895 Audio Sermons
   85 Sermon Videos
   291 Special Guests Serm

   Complete Audio Bible
Higher Praise Sunday School Teaching
   Children's NT Studies
   Children's OT Studies

   98 Children's Midis
   Gospel For Kids Movie
   Children's JESUS Film
Higher Praise Christian Video Library ,Videos
   Christian Television
   TBN TV Live
   15,000 Videos - HP Tube
   712 Youth Music Vids
  Christian Video Library
   Praise Videos #1 & #2
   85 Sermon Videos
   Prophecy Film -Videos
   JESUS Film -Video
   Childrens JESUS Film
   Gospel For Kids Movie
   Passion Of The Christ
   Noah, Sodom, Sinai, Ark
   Tsunami Videos Photos
News And Information
   Testimonies
   Submit Lyrics, Tabs, Serm
   10.000 Illustrations
   Bible College Course
   Clipart & Web Graphics
   Greatest Preachers
   Complete Talking Bible
   Christian Chat Rooms
   Links Church Resource
   HP Statement Of Faith
Download Clipart
   Audio Sermons
   Clipart & Web Graphics
   Church Administration
   Bible Study Software
   Screen Savers Software
   Verse A Day Software
   Educational Games
   Trade Center Photos

   Soft. Search Engine
Higher Praise News
   Current News
    Archived News
   Submit News
   Newsletter   Higher Praise Interact Prayer
   Prayer For All Needs
   
Submit Lyrics, Sermons
   
Contact Higher Praise
   
Advertising 
   Privacy Policy
//
He Died For You,  Click For Answer! This Is Who Jesus Is Video

'
 
0-9 A B C D E F G H I J K L M N O P Q R S T U V W X Y Z
.

//
Click For Printable...Version Of This File
 

Hell On The Rise


by Maylene And The Sons Of Disaster




Maylene and the Sons of Disaster!
Hell on the Rise
tabbed by Hurricane Andy

This is the song as I play it, however there are three guitarists in the band and I have
idea which one of them plays what. So i'm just tabbing out what I learned off of the
And i'm definately not going to try to label different parts of the song (chorus, verse,
bridge, etc) because most of their songs don't follow structure. So i'm labelling by lyric.


INTRO: DRESSED LIKE ANGELS
E
------------------------------------------------------------------

B
------------------------------------------------------------------

G
2--5-4-0-2--------------------------------------------------------

D
------------------------------------------------------------------

A
------------5--3-2---2--------------------------------------------

D
-------------------5----------------------------------------------

eight times

AMBIENCE FORETOLD AND NOW THIS STONE IS CAVING FROM WITHIN
E
------------------------------------------------------------------

B
------------------------------------------------------------------

G
--------------2--2-2-5--5-5-3--3-3-3-3-3-3-2--2-2-2-2-2-2---------

D
3--3-3-5--5-5-2--2-2-5--5-5-3--3-3-3-3-3-3-2--2-2-2-2-2-2---------

A
3--3-3-5--5-5-0--0-0-3--3-3-1--1-1-1-1-1-1-0--0-0-0-0-0-0---------

D
3--3-3-5--5-5-----------------------------------------------------

four times

AN INSTRUMENTAL PART
E
---------------------
------------------------------
-------------

B
---------------------
------------------------------
-------------

G
---------------------
------------------------------
-------=-----

D
-----------0-0-------
3-5-0-0-0------0-0------------
3-5-0--------

A
0-0-3p0-5--0-0-3-4-5-
3-5-0-0-0-3-5--0-0-3-4-5------
3-5-0--------

D
-----------0-0-------
3-5-0-0-0------0-0------------
3-5-0--------

                        Play this part 3 times, then-> this once.

WHORES WITH HALOS WISHING FOR WINGS
E
------------------------------------------------------------------

B
------------------------------------------------------------------

G
------------------------------------------------------------------

D
0--0--0--3-5--5--5-3-5-6--6--6-5-3-0--0--0-0-3--------------------

A
0--0--0--3-5--5--5-3-5-6--6--6-5-3-0--0--0-0-3--------------------

D
0--0--0--3-5--5--5-3-5-6--6--6-5-3-0--0--0-0-3--------------------

four times!

GIVE US THAT POTION..
E
---------------------------------------------------------------------------

B
---------------------------------------------------------------------------

G
---------------------------------------------------------------------------

D
0--0----------------0--0-3p0h3----------0--0----------------0-0--543-------

A
0--0-3p0h3----------0--0----------------0--0-3p0h3----------0-0-----543----

D
0--0--------0h3p0-0-0--0--------0h3p0-0-0--0--------0h3p0-0-0-0--------543-

four times!

YOU WANT THE PACK WHERE BLAZIN THROUGH
RUN FOR THE HILLS THE SOUTH'S GONNA TAKE YOU!
E
------------------------------------------------------------------

B
------------------------------------------------------------------

G
------------------------------------------------------------------

D
------------------------------------------------------------------

A
------------------------------------------------------------------

D
0--0h3p0-0-0--0h3p0-0-0--0h3p0-0-0--0-5h6p5-5---------------------

four times!

WHORES WITH HALOS WISHING FOR WINGS
E
------------------------------------------------------------------

B
------------------------------------------------------------------

G
------------------------------------------------------------------

D
0--0--0--3-5--5--5-3-5-6--6--6-5-3-0--0--0-0-3--------------------

A
0--0--0--3-5--5--5-3-5-6--6--6-5-3-0--0--0-0-3--------------------

D
0--0--0--3-5--5--5-3-5-6--6--6-5-3-0--0--0-0-3--------------------

four times!

INSTRUMENTAL 2:(all open strums are palm muted)
E
-----------------------------------------------------------------------

B
-----------------------------------------------------------------------

G
-----------------------------------------------------------------------

D
0-0--------0-0--------3-5-0-0-0----------------------------------------

A
0-0-3p0-5--0-0-3-4-5--3-5-0-0-0----------------------------------------

D
0-0--------0-0--------3-5-0-0-0----------------------------------------

four times!  

INSTUMENTAL 2:PART TWO!?
E
---
-------------------------------------------------------------------

B
---
-------------------------------------------------------------------

G
---
-------------------------------------------------------------------

D
0-0
--------0-0-----------3-5-0-0-0------------------------------------

A
0-0
3-3-5-5-0-0-3-3-4-5-5-3-5-0-0-0------------------------------------

D
0-0
--------0-0-----------3-5-0-0-0------------------------------------

     
FOUR TIMES!           



E
--------

B
--------

G
--------

D
3-5-0---

A
3-5-0---

D
3-5-0---

end on this.


That's it, I hope this helps you play some music from the best band ever. 



 


/
How To Set Up Higher Praise As Your Home Page
Copyright 1999, Higher Praise HigherPraise,Inc. All rights reserved. Terms of Use

Enjoy A Life Changing Experience

 
 
 
HigherPraise, Higher Praise, HigherPraise, Higher Praise, HigherPraise

Members..Sign Up. LogIn

 
 

Higher Praise Other Sites
 
 

HigherPraise.org/
Praise And Worship
www.higherpraise.org

HigherPraise.net
Christian Resources
www.higherpraise.net

HigherPraiseTube.com
Videos And Audios
www.higherpraisetube.com.


ChristianLyrics.org

Lyrics And Chrords
www.christianlyrics.org

ChristianChordsLyrics

Lyrics And Chrords
www.christianchordslyrics.com

ChristianChordLyrics

Lyrics And Chrords
www.christianchordlyrics.com

WorshipLyrics.org
10.000 Illustrations
www.worshiplyrics.org

WorshipLyrics.net
10.000 Illustrations
www.worshiplyrics.net

PraiseLyrics.com
PowerPoint Lyrics

www.praiselyrics.com

PraiseLyrics.org
PowerPoint Lyrics

www.praiselyrics.org

1GodTube.com
Chistian Videos

www1godtube..com

OneGodTube.com
Chistian Videos

www.onegodtube..com

 

/
Copyright 1999 - 2019, Higher Praise™ HigherPraise™,Inc. All rights reserved. Terms of Use