Higher Praise - Guitar Chords, Lyrics  GuitarTabs -  Praise nad Worship Music And Christian Songs

Higher Praise - Guitar Tabs, Guitar Chords, Lyrics
   Lyrics, Chords And Tabs
   Popular Lyrics Chords Tab
   Power Point Lyrics
   Praise & Worship Music
   Christian Music Videos
   15900 Videos & Audios
   Midi Files
   Worship Questions
   Christmas Chords, Lyrics
   Lyrics, Chords Tabs Rated

Sermon Outlines And Audio Sermons
   9344 Sermon Outlines
   N.T. Sermon Outlines
   O.T. Sermon Outlines
   Special Guest Outlines
   10.000 Illustrations
   Sunday School Studies
   Bible College Studies
   Greatest Preachers
   Bible Research Tools
Audio Sermons
   2895 Audio Sermons
   85 Sermon Videos
   291 Special Guests Serm

   Complete Audio Bible
Higher Praise Sunday School Teaching
   Children's NT Studies
   Children's OT Studies

   98 Children's Midis
   Gospel For Kids Movie
   Children's JESUS Film
Higher Praise Christian Video Library ,Videos
   Christian Television
   TBN TV Live
   15,000 Videos - HP Tube
   712 Youth Music Vids
  Christian Video Library
   Praise Videos #1 & #2
   85 Sermon Videos
   Prophecy Film -Videos
   JESUS Film -Video
   Childrens JESUS Film
   Gospel For Kids Movie
   Passion Of The Christ
   Noah, Sodom, Sinai, Ark
   Tsunami Videos Photos
News And Information
   Testimonies
   Submit Lyrics, Tabs, Serm
   10.000 Illustrations
   Bible College Course
   Clipart & Web Graphics
   Greatest Preachers
   Complete Talking Bible
   Christian Chat Rooms
   Links Church Resource
   HP Statement Of Faith
Download Clipart
   Audio Sermons
   Clipart & Web Graphics
   Church Administration
   Bible Study Software
   Screen Savers Software
   Verse A Day Software
   Educational Games
   Trade Center Photos

   Soft. Search Engine
Higher Praise News
   Current News
    Archived News
   Submit News
   Newsletter   Higher Praise Interact Prayer
   Prayer For All Needs
   
Submit Lyrics, Sermons
   
Contact Higher Praise
   
Advertising 
   Privacy Policy
//
He Died For You,  Click For Answer! This Is Who Jesus Is Video

'
 
0-9 A B C D E F G H I J K L M N O P Q R S T U V W X Y Z
.

//
Click For Printable...Version Of This File
 

Broken


by Lifehouse




Not the exact way its played but still sounds pretty good when played with the song. i 
tweaking it a bit and playing with it a bit till u find what works best for you. this is 
first tab so im sry if its a little off anywhere. rate and enjoy

Artist: Lifehouse
Song: Broken
Tuning: Standard


Intro:
e
----------------------------------------------

B
----------------------------------------------

G
----------------------------------------------

D
---4-----4-----4-----4-----8-----8-----8-----8

A
----------------------------------------------

E
2-----2-----2-----2-----6-----6-----6-----6---
(x2)

Verses:
e
----------------------------------------------

B
----------------------------------------------

G
----------------------------------------------

D
---4-----4-----4-----4-----8-----8-----8-----8

A
----------------------------------------------

E
2-----2-----2-----2-----6-----6-----6-----6---

1.The broken clock is a comfort
2.The broken locks were a warning

e
----------------------------------------------

B
----------------------------------------------

G
----------------------------------------------

D
---4-----4-----4-----4-----8-----8-----8-----8

A
----------------------------------------------

E
2-----2-----2-----2-----6-----6-----6-----6---

  it helps me sleep tonight
  you got inside my head

e
----------------------------------------------

B
----------------------------------------------

G
----------------------------------------------

D
---4-----4-----4-----4-----8-----8-----8-----8

A
----------------------------------------------

E
2-----2-----2-----2-----6-----6-----6-----6---

  maybe it can stop tomorrow
  I tried my best to be guarded

e
----------------------------------------------

B
----------------------------------------------

G
---6-----6-----6-----6------------------------

D
---------------------------6------6-----6----6

A
4-----4-----4-----4---------------------------

E
------------------------4-----4-----4-----4---

  from stealing all my time
  I'm an open book instead

e
----------------------------------------------

B
----------------------------------------------

G
----------------------------------------------

D
---4-----4-----4-----4-----8-----8-----8-----8

A
----------------------------------------------

E
2-----2-----2-----2-----6-----6-----6-----6---

  and I am here still waiting
  And I still see your reflection

e
----------------------------------------------

B
----------------------------------------------

G
----------------------------------------------

D
---4-----4-----4-----4-----8-----8-----8-----8

A
----------------------------------------------

E
2-----2-----2-----2-----6-----6-----6-----6---

  though i still have my doubts
  inside of my eyes

e
----------------------------------------------

B
----------------------------------------------

G
----------------------------------------------

D
---4-----4-----4-----4-----8-----8-----8-----8

A
----------------------------------------------

E
2-----2-----2-----2-----6-----6-----6-----6---

  i am damaged at best
  That are looking for purpose

e
----------------------------------------------

B
----------------------------------------------

G
---6-----6-----6-----6------------------------

D
---------------------------6------6-----6----6

A
4-----4-----4-----4---------------------------

E
------------------------4-----4-----4-----4---

  like you've already figured out (go to Chorus)
  they're still looking for life (go to Chorus)

Chorus:
e
-----------------------------------------------------

B
-----------------------------------------------------

G
-------------6-----------------------6---------------

D
-------------6-----------------------6-----------6---

A
-------------4-----------------------4-----------6---

E
-------------------------------------------------4---

  I'm falling apart            barely brea  -   -  thing

e
------------------------------------------------------

B
------------------------------------------------------

G
--------------------------------------6---------------

D
--------------8-----------------------6-----------6---

A
--------------8-----------------------4-----------6---

E
--------------6-----------------------------------4---

  with a broken heart      that's still bea  -  -  ting

e
-----------------------------------------------------

B
-----------------------------------------------------

G
-------------6-----------------------6---------------

D
-------------6-----------------------6-----------6---

A
-------------4-----------------------4-----------6---

E
-------------------------------------------------4---

        in the pain           there is heal  -  -  ing

e
------------------------------------------------------

B
------------------------------------------------------

G
--------------------------------------6---------------

D
--------------8-----------------------6-----------6---

A
--------------8-----------------------4-----------6---

E
--------------6-----------------------------------4---

       in your name             i find mean  -  - ing

e
------------------------------------------------------

B
------------------------------------------------------

G
------------------------------------------------------

D
---------------4-------8-------4-------8-------4-----8

A
---------------4-------8-------4-------8-------4-----8

E
---------------2-------6-------2-------6-------2-----6

  so im holding on       holding on     holding on

e
------------------------------------------------------

B
------------------------------------------------------

G
------------6-----------------------------------------

D
------------6-------------6---------------------------

A
------------4-------------6---------------------------

E
--------------------------4---------------------------

   I'm barely holding on to you

Bridge:
e
------------------------------------------------------------

B
------------------------------------------------------------

G
-------------6----------------------------------------6-----

D
-------------6---------8-----------4------------------6--6--

A
-------------4---------8-----------4------------------4--6--

E
-----------------------6-----------2---------------------4--

  I'm hanging on another day just to see what you throw my way

e
---------------------------------------------------------------------

B
---------------------------------------------------------------------

G
-------------6-------------------------------------------------------

D
-------------6------------------8---------------------4-----------6--

A
-------------4------------------8---------------------4-----------6--

E
--------------------------------6---------------------2-----------4--

  I'm hanging on to the words you say you said that I will, will be okay.

Verse 3:
e
----------------------------------------------

B
----------------------------------------------

G
----------------------------------------------

D
---4-----4-----4-----4-----8-----8-----8-----8

A
----------------------------------------------

E
2-----2-----2-----2-----6-----6-----6-----6---

3.The broken lights on the freeway

e
----------------------------------------------

B
----------------------------------------------

G
----------------------------------------------

D
---4-----4-----4-----4-----8-----8-----8-----8

A
----------------------------------------------

E
2-----2-----2-----2-----6-----6-----6-----6---

  left me here alone

e
----------------------------------------------

B
----------------------------------------------

G
----------------------------------------------

D
---4-----4-----4-----4-----8-----8-----8-----8

A
----------------------------------------------

E
2-----2-----2-----2-----6-----6-----6-----6---

  I may have lost my way now

e
----------------------------------------------

B
----------------------------------------------

G
---6-----6-----6-----6-----6-----6-----6------

D
------------------------------------------6---

A
4-----4-----4-----4-----4-----4-----4-----6---

E
------------------------------------------4---

  Haven't forgotten                 my way home (go to chorus)

Outro:
e
-------------------------------------------------

B
-------------------------------------------------

G
-------------------------------------------------

D
---4-----4-----4-----4-----8-----8-----8-----8--4

A
------------------------------------------------4

E
2-----2-----2-----2-----6-----6-----6-----6-----2

 


/
How To Set Up Higher Praise As Your Home Page
Copyright 1999, Higher Praise HigherPraise,Inc. All rights reserved. Terms of Use

Enjoy A Life Changing Experience

 
 
 
HigherPraise, Higher Praise, HigherPraise, Higher Praise, HigherPraise

Members..Sign Up. LogIn

 
 

Higher Praise Other Sites
 
 

HigherPraise.org/
Praise And Worship
www.higherpraise.org

HigherPraise.net
Christian Resources
www.higherpraise.net

HigherPraiseTube.com
Videos And Audios
www.higherpraisetube.com.


ChristianLyrics.org

Lyrics And Chrords
www.christianlyrics.org

ChristianChordsLyrics

Lyrics And Chrords
www.christianchordslyrics.com

ChristianChordLyrics

Lyrics And Chrords
www.christianchordlyrics.com

WorshipLyrics.org
10.000 Illustrations
www.worshiplyrics.org

WorshipLyrics.net
10.000 Illustrations
www.worshiplyrics.net

PraiseLyrics.com
PowerPoint Lyrics

www.praiselyrics.com

PraiseLyrics.org
PowerPoint Lyrics

www.praiselyrics.org

1GodTube.com
Chistian Videos

www1godtube..com

OneGodTube.com
Chistian Videos

www.onegodtube..com

 

/
Copyright 1999 - 2019, Higher Praise™ HigherPraise™,Inc. All rights reserved. Terms of Use