Higher Praise - Guitar Chords, Lyrics  GuitarTabs -  Praise nad Worship Music And Christian Songs

Higher Praise - Guitar Tabs, Guitar Chords, Lyrics
   Lyrics, Chords And Tabs
   Popular Lyrics Chords Tab
   Power Point Lyrics
   Praise & Worship Music
   Christian Music Videos
   15900 Videos & Audios
   Midi Files
   Worship Questions
   Christmas Chords, Lyrics
   Lyrics, Chords Tabs Rated

Sermon Outlines And Audio Sermons
   9344 Sermon Outlines
   N.T. Sermon Outlines
   O.T. Sermon Outlines
   Special Guest Outlines
   10.000 Illustrations
   Sunday School Studies
   Bible College Studies
   Greatest Preachers
   Bible Research Tools
Audio Sermons
   2895 Audio Sermons
   85 Sermon Videos
   291 Special Guests Serm

   Complete Audio Bible
Higher Praise Sunday School Teaching
   Children's NT Studies
   Children's OT Studies

   98 Children's Midis
   Gospel For Kids Movie
   Children's JESUS Film
Higher Praise Christian Video Library ,Videos
   Christian Television
   TBN TV Live
   15,000 Videos - HP Tube
   712 Youth Music Vids
  Christian Video Library
   Praise Videos #1 & #2
   85 Sermon Videos
   Prophecy Film -Videos
   JESUS Film -Video
   Childrens JESUS Film
   Gospel For Kids Movie
   Passion Of The Christ
   Noah, Sodom, Sinai, Ark
   Tsunami Videos Photos
News And Information
   Testimonies
   Submit Lyrics, Tabs, Serm
   10.000 Illustrations
   Bible College Course
   Clipart & Web Graphics
   Greatest Preachers
   Complete Talking Bible
   Christian Chat Rooms
   Links Church Resource
   HP Statement Of Faith
Download Clipart
   Audio Sermons
   Clipart & Web Graphics
   Church Administration
   Bible Study Software
   Screen Savers Software
   Verse A Day Software
   Educational Games
   Trade Center Photos

   Soft. Search Engine
Higher Praise News
   Current News
    Archived News
   Submit News
   Newsletter   Higher Praise Interact Prayer
   Prayer For All Needs
   
Submit Lyrics, Sermons
   
Contact Higher Praise
   
Advertising 
   Privacy Policy
//
He Died For You,  Click For Answer! This Is Who Jesus Is Video

'
 
0-9 A B C D E F G H I J K L M N O P Q R S T U V W X Y Z
.

//
Click For Printable...Version Of This File
 

Hearts Of The Innocent


by Kutless




Sorry. This is my first time tabbing so... yeah. 
the tuning is everything flatted and then tune the low e string (now Eb)
down two steps to Db.

/=slide up
\=slide down

INTRO

  
  4x   
         
  4x   
        
  4x   
         

Eb
-------
---------
-------
--------
-------
---------

Bb
-------
---------
-------
--------
-------
---------

Gb
-------
---------
-------
--------
-------
---------

Db
-0---2-
--/-5--5-
-0---2-
--/7--7-
-0---2-
--/-5--5-

Ab
-0---2-
--/-5--5-
-0---2-
--/7--7-
-0---2-
--/-5--5-

Db
-0---2-
--/-5--5-
-0---2-
--/7--7-
-0---2-
--/-5--5-


                           
its fast

Eb
-------------------------
-------
-------

Bb
-------------------------
-------
-------

Gb
-------------------------
-------
-------

Db
-10--10--10--10---5---7--
-7-\-5-
-5---7-

Ab
-10--10--10--10---5---7--
-7-\-5-
-5---7-

Db
-10--10--10--10---5---7--
-7-\-5-
-5---7-



1ST SOLO
the little solo part that's next is:

Eb
---------------------------------------------

Bb
---------------------------------------------

Gb
---------------------------------------------

Db
-14--14--12-------14--14--12--------------9--

Ab
-------------10---------------12---9--10-----

Db
---------------------------------------------


i'm not sure if this is another guitar but...

Eb
-------

Bb
-------

Gb
-------

Db
-7---0-

Ab
-7---0-
  u ppl can probably figure out the strumming 'cause
Db
-7---0-
  i don't wanna tab it all out. :)
             

then ya do this part again. (except u quickly slide up to
the 9th fret (8-/-9)on the Ab string this time.)

2ND SOLO

i'm not sure on the power chords, but this is the solo.

Eb
-------7-------------------10--------------------7-----8--7-

Bb
-8-----------8-------8------------8--------8----------------

Gb
----9-----9-----9-------9------9-----9--------9-----9-------

Db
------------------------------------------------------------

Ab
------------------------------------------------------------

Db
------------------------------------------------------------


then play parts of this in the background.
then play the 1ST SOLO again.
then play the 2ND SOLO again.

they then play a bunch of power chords that i cannot provide.
then they do the intro and the comes the

3RD SOLO

Eb
-------------------------------------

Bb
-12--10----------10------------------

Gb
---------12--12------12--9--12--9--9-

Db
-------------------------------------

Ab
-------------------------------------

Db
-------------------------------------


Eb
-------------------------------------------------------------------------

Bb
-12--10----------10--------------10--12----10--12-----10--12--13--12-----

Gb
---------12--12------12--9--8/9---------9----------9------------------12-

Db
-------------------------------------------------------------------------

Ab
-------------------------------------------------------------------------

Db
-------------------------------------------------------------------------


Eb
-------------------

Bb
----10--12-----10\-

Gb
-9----------9------

Db
-------------------

Ab
-------------------

Db
-------------------


Eb
---------------------

Bb
---------------------

Gb
---------------------

Db
-2--4--5--7--4--0--2-

Ab
-2--4--5--7--4--0--2-

Db
-2--4--5--7--4--0--2-


yup and that's it.
yeah. i kno there's like, no chords, but pleez somebody else
post it 'cause i wanna kno em!!!!
 


/
How To Set Up Higher Praise As Your Home Page
Copyright 1999, Higher Praise HigherPraise,Inc. All rights reserved. Terms of Use

Enjoy A Life Changing Experience

 
 
 
HigherPraise, Higher Praise, HigherPraise, Higher Praise, HigherPraise

Members..Sign Up. LogIn

 
 

Higher Praise Other Sites
 
 

HigherPraise.org/
Praise And Worship
www.higherpraise.org

HigherPraise.net
Christian Resources
www.higherpraise.net

HigherPraiseTube.com
Videos And Audios
www.higherpraisetube.com.


ChristianLyrics.org

Lyrics And Chrords
www.christianlyrics.org

ChristianChordsLyrics

Lyrics And Chrords
www.christianchordslyrics.com

ChristianChordLyrics

Lyrics And Chrords
www.christianchordlyrics.com

WorshipLyrics.org
10.000 Illustrations
www.worshiplyrics.org

WorshipLyrics.net
10.000 Illustrations
www.worshiplyrics.net

PraiseLyrics.com
PowerPoint Lyrics

www.praiselyrics.com

PraiseLyrics.org
PowerPoint Lyrics

www.praiselyrics.org

1GodTube.com
Chistian Videos

www1godtube..com

OneGodTube.com
Chistian Videos

www.onegodtube..com

 

/
Copyright 1999 - 2019, Higher Praise™ HigherPraise™,Inc. All rights reserved. Terms of Use