Higher Praise - Guitar Chords, Lyrics  GuitarTabs -  Praise nad Worship Music And Christian Songs

Higher Praise - Guitar Tabs, Guitar Chords, Lyrics
   Lyrics, Chords And Tabs
   Popular Lyrics Chords Tab
   Power Point Lyrics
   Praise & Worship Music
   Christian Music Videos
   15900 Videos & Audios
   Midi Files
   Worship Questions
   Christmas Chords, Lyrics
   Lyrics, Chords Tabs Rated

Sermon Outlines And Audio Sermons
   9344 Sermon Outlines
   N.T. Sermon Outlines
   O.T. Sermon Outlines
   Special Guest Outlines
   10.000 Illustrations
   Sunday School Studies
   Bible College Studies
   Greatest Preachers
   Bible Research Tools
Audio Sermons
   2895 Audio Sermons
   85 Sermon Videos
   291 Special Guests Serm

   Complete Audio Bible
Higher Praise Sunday School Teaching
   Children's NT Studies
   Children's OT Studies

   98 Children's Midis
   Gospel For Kids Movie
   Children's JESUS Film
Higher Praise Christian Video Library ,Videos
   Christian Television
   TBN TV Live
   15,000 Videos - HP Tube
   712 Youth Music Vids
  Christian Video Library
   Praise Videos #1 & #2
   85 Sermon Videos
   Prophecy Film -Videos
   JESUS Film -Video
   Childrens JESUS Film
   Gospel For Kids Movie
   Passion Of The Christ
   Noah, Sodom, Sinai, Ark
   Tsunami Videos Photos
News And Information
   Testimonies
   Submit Lyrics, Tabs, Serm
   10.000 Illustrations
   Bible College Course
   Clipart & Web Graphics
   Greatest Preachers
   Complete Talking Bible
   Christian Chat Rooms
   Links Church Resource
   HP Statement Of Faith
Download Clipart
   Audio Sermons
   Clipart & Web Graphics
   Church Administration
   Bible Study Software
   Screen Savers Software
   Verse A Day Software
   Educational Games
   Trade Center Photos

   Soft. Search Engine
Higher Praise News
   Current News
    Archived News
   Submit News
   Newsletter   Higher Praise Interact Prayer
   Prayer For All Needs
   
Submit Lyrics, Sermons
   
Contact Higher Praise
   
Advertising 
   Privacy Policy
//
He Died For You,  Click For Answer! This Is Who Jesus Is Video

'
 
0-9 A B C D E F G H I J K L M N O P Q R S T U V W X Y Z
.

//
Click For Printable...Version Of This File
 

I Gotta Find You


by Jonas Brothers




ok this is the song that Shane(Joe Jonas) from Connect Three in Camp Rock
plays for Mitchie(Demi Lovato) at the river... im pretty sure its close to
100% correct... not sure on some parts, i'll let you know when. this is a
great song that i cant get out of my head s i decided to make a tab for it
hnope you like it... oh and by the way, demi lovato is freaking gorgeous!
lol

/ = Slide up
p = pull off
x = mute
~ = let ring

Intro & Verse: Play as Intro 1x and Verse 2x
e
--------------x1----33-------------11--0~00---------11-3~33---------1~1x-3-33~--

B
--3/5-3p1-----x1--1~11-3/5-3p1-----11--1~11-3p1-----11-1~11-3/5-3p1-1~1x-3-33~--

G
--0~--0~--0~--x2--0~00-0~--0~--0~--22--2~22-0~--0~--22-0~00-0~--0~--2~2x-0-00~--

D
----------2h3-x3--2~22---------2h3-33--2~22-----2h3-33-2~22---------3~3x-0-00~--

A
------------------3~33-----------------0~00------------3~33---------3~3x-2-22~--

E
--------------------------------------------------------------------1~1x-3-33~--



Pre-Chorus:
e
------3~33-----3~33-
-----3~33-----3~33--

B
------1~11-----1~11-
-----1~11-----3~33--

G
------0~00-----0~00-
-----2~22-----0~00--

D
--2-2-2~22-0-0-0~00-
-2-2-2~22-----0~00--

A
--3-3-3~33-2-2-2~22-
-0-0-0~00-2-2-2~22--

E
--------------------
----------3-3-3~33--


e
------3~33----------
-----3~33-----3~33--

B
------1~11-----3~33-
-----3~33-----3~33--

G
------0~00-2-2-2~22-
-----0~00-----0~00--

D
--2-2-2~22-0-0-0~00-
-----0~00-----0~00--

A
--3-3-3~33----------
-2-2-2~22-2-2-2~22--

E
--------------------
-3-3-3~33-3-3-3~33--



Chorus:
e
--1-1-1~1100000-0~03-3-3~3333333-3-3--

B
--1-1-1~1111111-1~13-3-3~3333333-3-3--

G
--2-2-2~2200000-0~00-0-0~0000000-0-0--

D
--3-3-3~3322222-2~20-0-0~0000000-0-0--
 Repeat 3x
A
--3-3-3~3333333-3~32-2-2~2222222-2-2--

E
--1-1-1~11---------3-3-3~3333333-3-3--


4th time
e
-------------------3~--

B
--3-3-3~3333333-3~33~--

G
--2-2-2~2222222-2~20~--

D
--0-0-0~0000000-0~00~--

A
-------------------2~--

E
-------------------3~--


After The Chorus
e
--------------1----33-------------11--0~00---------11-3~33---------1~1x-3-33~--

B
--3/5-3p1-----1--1~11-3/5-3p1-----11--1~11-3p1-----11-1~11-3/5-3p1-1~1x-3-33~--

G
--0~--0~--0~--2--0~00-0~--0~--0~--22--2~22-0~--0~--22-0~00-0~--0~--2~2x-0-00~--

D
----------2h3-3--2~22---------2h3-33--2~22-----2h3-33-2~22---------3~3x-0-00~--

A
-----------------3~33-----------------0~00------------3~33---------3~3x-2-22~--

E
-------------------------------------------------------------------1~1x-3-33~--


Verse: Play 2x
e
--------------x1----33-------------11--0~00---------11-3~33---------1~1x-3-33~--

B
--3/5-3p1-----x1--1~11-3/5-3p1-----11--1~11-3p1-----11-1~11-3/5-3p1-1~1x-3-33~--

G
--0~--0~--0~--x2--0~00-0~--0~--0~--22--2~22-0~--0~--22-0~00-0~--0~--2~2x-0-00~--

D
----------2h3-x3--2~22---------2h3-33--2~22-----2h3-33-2~22---------3~3x-0-00~--

A
------------------3~33-----------------0~00------------3~33---------3~3x-2-22~--

E
--------------------------------------------------------------------1~1x-3-33~--


Pre-Chorus:
e
------3~33-----3~33-
-----3~33-----3~33--

B
------1~11-----1~11-
-----1~11-----3~33--

G
------0~00-----0~00-
-----2~22-----0~00--

D
--2-2-2~22-0-0-0~00-
-2-2-2~22-----0~00--

A
--3-3-3~33-2-2-2~22-
-0-0-0~00-2-2-2~22--

E
--------------------
----------3-3-3~33--


e
------3~33----------
-----3~33-----3~33--

B
------1~11-----3~33-
-----3~33-----3~33--

G
------0~00-2-2-2~22-
-----0~00-----0~00--

D
--2-2-2~22-0-0-0~00-
-----0~00-----0~00--

A
--3-3-3~33----------
-2-2-2~22-2-2-2~22--

E
--------------------
-3-3-3~33-3-3-3~33--



Chorus:
e
--1-1-1~1100000-0~03-3-3~3333333-3-3--

B
--1-1-1~1111111-1~13-3-3~3333333-3-3--

G
--2-2-2~2200000-0~00-0-0~0000000-0-0--

D
--3-3-3~3322222-2~20-0-0~0000000-0-0--
 Repeat 3x
A
--3-3-3~3333333-3~32-2-2~2222222-2-2--

E
--1-1-1~11---------3-3-3~3333333-3-3--


4th time
e
-------------------3-3-3~3333333-3-3--

B
--3-3-3-3333333-3~33-3-3~3333333-3-3--

G
--2-2-2~2222222-2~20-0-0~0000000-0-0--

D
--0-0-0~0000000-0~00-0-0~0000000-0-0--

A
-------------------2-2-2~2222222-2-2--

E
-------------------3-3-3~3333333-3-3--


Bridge:
e
-----x----------x----x-1-11-1111--

B
--3-3x-3-33-3333x-3-3x-1-11-1111--

G
--0-0x-0-00-0000x-0-0x-2-22-2222--

D
--2-2x-0-00-0000x-2-2x-3-33-3333--

A
--0-0x-2-22-2222x-3-3x-3-33-3333--

E
-----x----------x----x-1-11-1111--


e
-----x----------x-3-3x-3-33-3333--

B
--3-3x-3-33-3333x-3-3x-3-33-3333--

G
--2-2x-2-22-2222x-0-0x-0-00-0000--

D
--0-0x-0-00-0000x-0-0x-0-00-0000--

A
-----x----------x-2-2x-2-22-2222--

E
-----x----------x-3-3x-3-33-3333--


then there is one small part where its a guitar and piano but i can hear
the guitar part too much so i kinda pick in these cords

e
--3--      --3--

B
--1--      --3--

G
--0-- then --0--

D
--2--      --0--

A
--3--      --2--

E
-----      --3--


READ NEXT PARAGRAPH FOR ENDING OF THE SONG!!!!

then after he says "Ohhhhh..." when he says " I need to FIND you"... you
strum the first cord on "FIND" then strum the next chord really quick when
Joe says "YEAH!!!!" and palm mute a couple times then release slowly and
progress into the chorus which you will play 2 times then it goes into the
intro/verse thing in which you played at the very beginnig and you play
that once and end on the "G" chord that you play once and let it ring out


Alright thats it... man this took a long time to make so i better get some
good reviews on this song... hope this is good enough for you...

if there are any mistakes or things you would like me to add message me on

or what you would like me to add!!!!

alright im out peace
Cameron
 


/
How To Set Up Higher Praise As Your Home Page
Copyright 1999, Higher Praise HigherPraise,Inc. All rights reserved. Terms of Use

Enjoy A Life Changing Experience

 
 
 
HigherPraise, Higher Praise, HigherPraise, Higher Praise, HigherPraise

Members..Sign Up. LogIn

 
 

Higher Praise Other Sites
 
 

HigherPraise.org/
Praise And Worship
www.higherpraise.org

HigherPraise.net
Christian Resources
www.higherpraise.net

HigherPraiseTube.com
Videos And Audios
www.higherpraisetube.com.


ChristianLyrics.org

Lyrics And Chrords
www.christianlyrics.org

ChristianChordsLyrics

Lyrics And Chrords
www.christianchordslyrics.com

ChristianChordLyrics

Lyrics And Chrords
www.christianchordlyrics.com

WorshipLyrics.org
10.000 Illustrations
www.worshiplyrics.org

WorshipLyrics.net
10.000 Illustrations
www.worshiplyrics.net

PraiseLyrics.com
PowerPoint Lyrics

www.praiselyrics.com

PraiseLyrics.org
PowerPoint Lyrics

www.praiselyrics.org

1GodTube.com
Chistian Videos

www1godtube..com

OneGodTube.com
Chistian Videos

www.onegodtube..com

 

/
Copyright 1999 - 2019, Higher Praise™ HigherPraise™,Inc. All rights reserved. Terms of Use