Higher Praise - Guitar Chords, Lyrics  GuitarTabs -  Praise nad Worship Music And Christian Songs

Higher Praise - Guitar Tabs, Guitar Chords, Lyrics
   Lyrics, Chords And Tabs
   Popular Lyrics Chords Tab
   Power Point Lyrics
   Praise & Worship Music
   Christian Music Videos
   15900 Videos & Audios
   Midi Files
   Worship Questions
   Christmas Chords, Lyrics
   Lyrics, Chords Tabs Rated

Sermon Outlines And Audio Sermons
   9344 Sermon Outlines
   N.T. Sermon Outlines
   O.T. Sermon Outlines
   Special Guest Outlines
   10.000 Illustrations
   Sunday School Studies
   Bible College Studies
   Greatest Preachers
   Bible Research Tools
Audio Sermons
   2895 Audio Sermons
   85 Sermon Videos
   291 Special Guests Serm

   Complete Audio Bible
Higher Praise Sunday School Teaching
   Children's NT Studies
   Children's OT Studies

   98 Children's Midis
   Gospel For Kids Movie
   Children's JESUS Film
Higher Praise Christian Video Library ,Videos
   Christian Television
   TBN TV Live
   15,000 Videos - HP Tube
   712 Youth Music Vids
  Christian Video Library
   Praise Videos #1 & #2
   85 Sermon Videos
   Prophecy Film -Videos
   JESUS Film -Video
   Childrens JESUS Film
   Gospel For Kids Movie
   Passion Of The Christ
   Noah, Sodom, Sinai, Ark
   Tsunami Videos Photos
News And Information
   Testimonies
   Submit Lyrics, Tabs, Serm
   10.000 Illustrations
   Bible College Course
   Clipart & Web Graphics
   Greatest Preachers
   Complete Talking Bible
   Christian Chat Rooms
   Links Church Resource
   HP Statement Of Faith
Download Clipart
   Audio Sermons
   Clipart & Web Graphics
   Church Administration
   Bible Study Software
   Screen Savers Software
   Verse A Day Software
   Educational Games
   Trade Center Photos

   Soft. Search Engine
Higher Praise News
   Current News
    Archived News
   Submit News
   Newsletter   Higher Praise Interact Prayer
   Prayer For All Needs
   
Submit Lyrics, Sermons
   
Contact Higher Praise
   
Advertising 
   Privacy Policy
//
He Died For You,  Click For Answer! This Is Who Jesus Is Video

'
 
0-9 A B C D E F G H I J K L M N O P Q R S T U V W X Y Z
.

//
Click For Printable...Version Of This File
 

Burnin Up


by Jonas Brothers




-------------------------------------------------------------------------------
			     BB Good - Jonas Brothers
-------------------------------------------------------------------------------

Key: B major
Tuning: Standard
Time: 4/4


Was unimpressed with the other tab.  Here's the complete song. If you
don't understand the techniques used, Google them.


Intro

   B5   D#5 E5        A5      B5   D#5 E5         A5  A#5
e
------------
-------------
------------
---------------

B
------------
-------------
------------
---------------

G
-------8--9-
-9-----------
-------8--9-
-9-9-----------

D
-9-----8--9-
-9--xx-7--7--
-9-----8--9-
-9-9--xx-7--8--

A
-9-----6--7-
-7--xx-7--7--
-9-----6--7-
-7-7--xx-7--8--

E
-7----------
----xx-5--5--
-7----------
------xx-5--6--





Verse

   B5   D#5 E5       F#5  B5       D#5 E5           A5
e
------------
-------------
-------------
---------------

B
------------
-------------
-------------
---------------

G
-------8--9-
-9-----11----
-------8--9--
-9-9-----------

D
-9-----8--9-
-9-----11----
-9-----8--9--
-9-9--xx-7--7--

A
-9-----6--7-
-7-----9---9-
-9-----6--7--
-7-7--xx-7--7--

E
-7----------
-----------7-
-7-----------
------xx-5--5--


   B5   D#5 E5       F#5  B5       D#5 E5           A5 A#5
e
------------
-------------
-------------
---------------

B
------------
-------------
-------------
---------------

G
-------8--9-
-9-----11----
-------8--9--
-9-9-----------

D
-9-----8--9-
-9-----11----
-9-----8--9--
-9-9--xx-7--8--

A
-9-----6--7-
-7-----9---9-
-9-----6--7--
-7-7--xx-7--8--

E
-7----------
-----------7-
-7-----------
------xx-5--6--





Chorus x 2

   B5   D#5 E5        A5      B5   D#5 E5         A5  A#5
e
------------
-------------
------------
---------------

B
------------
-------------
------------
---------------

G
-------8--9-
-9-----------
-------8--9-
-9-9-----------

D
-9-----8--9-
-9--xx-7--7--
-9-----8--9-
-9-9--xx-7--8--

A
-9-----6--7-
-7--xx-7--7--
-9-----6--7-
-7-7--xx-7--8--

E
-7----------
----xx-5--5--
-7----------
------xx-5--6--





Post-Chorus

  *Rhythm Guitar plays chorus progression*

e
-----------------
-----------------
-------------------
---------

B
-----------------
-----------------
-------------------
--11^12--

G
--4/6-----8------
--8/9-------8----
---11------9-------
---------

D
------7----------
-------11-----9--
------13-----11-11-
---------

A
------------9-9--
-----------------
-------------------
---------

E
-----------------
-----------------
-------------------
---------

                                                          Slow bend from
                                                          Bb up to B



Verse

   B5   D#5 E5       F#5  B5       D#5 E5           A5
e
------------
-------------
-------------
---------------

B
------------
-------------
-------------
---------------

G
-------8--9-
-9-----11----
-------8--9--
-9-9-----------

D
-9-----8--9-
-9-----11----
-9-----8--9--
-9-9--xx-7--7--

A
-9-----6--7-
-7-----9---9-
-9-----6--7--
-7-7--xx-7--7--

E
-7----------
-----------7-
-7-----------
------xx-5--5--


   B5   D#5 E5       F#5  B5       D#5 E5           A5 A#5
e
------------
-------------
-------------
---------------

B
------------
-------------
-------------
---------------

G
-------8--9-
-9-----11----
-------8--9--
-9-9-----------

D
-9-----8--9-
-9-----11----
-9-----8--9--
-9-9--xx-7--8--

A
-9-----6--7-
-7-----9---9-
-9-----6--7--
-7-7--xx-7--8--

E
-7----------
-----------7-
-7-----------
------xx-5--6--


                                                    E5     A5
e
-----------------
-----------------
-----------------
---------

B
-----------------
-----------------
-----------------
---------

G
-----------------
-----------------
---------------9-
---------

D
-----------------
-----------------
---------------9-
---7-7-7-

A
-----------6-6-7-
-7-7-7-7-7-9-9---
-----------6-6-7-
---7-7-7-

E
-7-7-7-7-7-------
---------------7-
-7-7-7-7-7-------
---5-5-5-

  
-PM----------------------------------------------


   B5   D#5 E5       F#5  B5       D#5 E5           F#5
e
------------
-------------
-------------
---------------------

B
------------
-------------
-------------
---------------------

G
-------8--9-
-9-----11----
-------8--9--
-9-9-9-9-11-11-11-11-

D
-9-----8--9-
-9-----11----
-9-----8--9--
-9-9-9-9-11-11-11-11-

A
-9-----6--7-
-7-----9---9-
-9-----6--7--
-7-7-7-7-9--9--9--9--

E
-7----------
-----------7-
-7-----------
---------------------





Chorus

   B5   D#5 E5        A5      B5   D#5 E5         A5  A#5
e
------------
-------------
------------
---------------

B
------------
-------------
------------
---------------

G
-------8--9-
-9-----------
-------8--9-
-9-9-----------

D
-9-----8--9-
-9--xx-7--7--
-9-----8--9-
-9-9--xx-7--8--

A
-9-----6--7-
-7--xx-7--7--
-9-----6--7-
-7-7--xx-7--8--

E
-7----------
----xx-5--5--
-7----------
------xx-5--6--



   B5   D#5 E5        A5      B5   D#5 E5         A5  G#5
e
------------
-------------
------------
---------------

B
------------
-------------
------------
---------------

G
-------8--9-
-9-----------
-------8--9-
-9-9-----------

D
-9-----8--9-
-9--xx-7--7--
-9-----8--9-
-9-9--xx-7--6--

A
-9-----6--7-
-7--xx-7--7--
-9-----6--7-
-7-7--xx-7--6--

E
-7----------
----xx-5--5--
-7----------
------xx-5--4--





Bridge

   *Acoustic Nylon Guitar

   B     D#m E                B     D#m E
e
-------------
------------
-------------
------------

B
--------7--9-
------------
--------7--9-
------------

G
-8------8--9-
------------
-8------8--9-
------------

D
-9-----------
------------
-9-----------
------------

A
--------6--7-
------------
--------6--7-
------------

E
-7-----------
------------
-7-----------
------------


   B     D#m E                B     
e
-------------
------------
-------------
------------

B
--------7--9-
------------
-------------
------------

G
-8------8--9-
------------
-8-----------
------------

D
-9-----------
------------
-9-----------
------------

A
--------6--7-
------------
-------------
------------

E
-7-----------
------------
-7-----------
------------





Guitar Solo

Rhythm Guitar:

   B5        D#5 E5          A5        B5        D#5 E5          A5  A#5
e
-----------------
-----------------
-----------------
-----------------

B
-----------------
-----------------
-----------------
-----------------

G
-----------8-8-9-
-9-9-9-9---------
-----------8-8-9-
-9-9-9-9---------

D
-9-9-9-9-9-8-8-9-
-9-9-9-9-7-7-7-7-
-9-9-9-9-9-8-8-9-
-9-9-9-9-7-7-8-8-

A
-9-9-9-9-9-6-6-7-
-7-7-7-7-7-7-7-7-
-9-9-9-9-9-6-6-7-
-7-7-7-7-7-7-8-8-

E
-7-7-7-7-7-------
---------5-5-5-5-
-7-7-7-7-7-------
---------5-5-6-6-


   B5        D#5 E5          A5        B5        D#5 E5
e
-----------------
-----------------
-----------------
-----------------

B
-----------------
-----------------
-----------------
-----------------

G
-----------8-8-9-
-9-9-9-9---------
-----------8-8-9-
-9-9-9-9-9-9-9-9-

D
-9-9-9-9-9-8-8-9-
-9-9-9-9-7-7-7-7-
-9-9-9-9-9-8-8-9-
-9-9-9-9-9-9-9-9-

A
-9-9-9-9-9-6-6-7-
-7-7-7-7-7-7-7-7-
-9-9-9-9-9-6-6-7-
-7-7-7-7-7-7-7-7-

E
-7-7-7-7-7-------
---------5-5-5-5-
-7-7-7-7-7-------
-----------------



Lead Guitar:

            B5          D#5 E5                 A5
e
--------
-----------------------
---------------------

B
-----15-
-17^19-<17>------------
-------15\-----------

G
-/16----
------------16---14----
-14-16-16\----14tr16-

D
--------
-(FULL--------------16-
---------------------

A
--------
---BEND)---------------
---------------------

E
--------
-----------------------
---------------------

  (Pickup)

   B5          D#5  E5                  A5     A#5
e
-----------------------
---------------------------

B
-----------------------
---------------------------

G
-(14)\10tr13------9^11-
-9\7/9--9--7--9^11p7-------

D
-----------------------
---------------------9-9---

A
-----------------------
---------------------------

E
-----------------------
---------------------------


   B5             D#5   E5                  A5
e
-------------------------
-----------------------

B
-12----15-------15-------
-15-------17^19-~~~----

G
-14/16----14-16----14-16-
----14-16--------------

D
-------------------------
-----------------------

A
-------------------------
-----------------------

E
-------------------------
-----------------------


   B5             D#5   E5          
e
-14/17-17-17-16-16-------
-17p16p14----------17^19-~~--

B
-------------------15-16-
----------17p15h16-----------

G
-------------------------
-----------------------------

D
-------------------------
-----------------------------

A
-------------------------
-----------------------------

E
-------------------------
-----------------------------


NOTES: 

The artificial harmonic in the first measure should be a full octave
 higher than the original E note (so the "29th" fret is where you should
 attack the note from)

The trills should be played without any picking at all, so they need
 to be faded into with ghost hammer-ons from nowhere.  Trill with your ring
 finger while the index finger holds the pedal note.  Legato slide (again,
 no picking) down to the F note and trill using the same fingers.  Slide down
 one more time to where your index finger is on the 7th fret (D note) and your
 ring finger is on the 9th fret so you're ready to fly into the next section.

The bend at the A5 should be a quick bend/release followed by a pull-off,
 only pick the first note, the rest should be done legato.

Play the first chord in the next measure with your first and ring finger
 holding the notes, then slide up, using your index for the A, your ring
 for the B, and your middle finger to hit the D note.


Chorus

   B5   D#5 E5        A5      B5   D#5 E5         A5  A#5
e
------------
-------------
------------
---------------

B
------------
-------------
------------
---------------

G
-------8--9-
-9-----------
-------8--9-
-9-9-----------

D
-9-----8--9-
-9--xx-7--7--
-9-----8--9-
-9-9--xx-7--8--

A
-9-----6--7-
-7--xx-7--7--
-9-----6--7-
-7-7--xx-7--8--

E
-7----------
----xx-5--5--
-7----------
------xx-5--6--


   B5   D#5 E5        A5      B5   D#5 E5       B7
e
------------
-------------
------------
-------------------------

B
------------
-------------
------------
------/12-15-12-15-15-12-

G
-------8--9-
-9-----------
-------8--9-
-9-9--/14----------------

D
-9-----8--9-
-9--xx-7--7--
-9-----8--9-
-9-9---------------------

A
-9-----6--7-
-7--xx-7--7--
-9-----6--7-
-7-7---------------------

E
-7----------
----xx-5--5--
-7----------
-------------------------


   B5        D#5 E5          A5        B5        D#5 E5          A5  A#5
e
-----------------
-----------------
-----------------
-----------------

B
-----------------
-----------------
-----------------
-----------------

G
-----------8-8-9-
-9-9-9-9---------
-----------8-8-9-
-9-9-9-9---------

D
-9-9-9-9-9-8-8-9-
-9-9-9-9-7-7-7-7-
-9-9-9-9-9-8-8-9-
-9-9-9-9-7-7-8-8-

A
-9-9-9-9-9-6-6-7-
-7-7-7-7-7-7-7-7-
-9-9-9-9-9-6-6-7-
-7-7-7-7-7-7-8-8-

E
-7-7-7-7-7-------
---------5-5-5-5-
-7-7-7-7-7-------
---------5-5-6-6-


   B5        D#5 E5          A5        B5        D#5 E5          A5  A#5
e
-----------------
-----------------
-----------------
-----------------

B
-----------------
-----------------
-----------------
-----------------

G
-----------8-8-9-
-9-9-9-9---------
-----------8-8-9-
-9-9-9-9---------

D
-9-9-9-9-9-8-8-9-
-9-9-9-9-7-7-7-7-
-9-9-9-9-9-8-8-9-
-9-9-9-9-7-7-8-8-

A
-9-9-9-9-9-6-6-7-
-7-7-7-7-7-7-7-7-
-9-9-9-9-9-6-6-7-
-7-7-7-7-7-7-8-8-

E
-7-7-7-7-7-------
---------5-5-5-5-
-7-7-7-7-7-------
---------5-5-6-6-



Outro

   B     D#m E                B     D#m E         A  A#
e
-------------
------------
-------------
-------------

B
--------7--9-
-9----------
--------7--9-
-9-9---------

G
-8------8--9-
-9----------
-8------8--9-
-9-9---6--7--

D
-9-----------
------------
-9-----------
-------7--8--

A
--------6--7-
-7----------
--------6--7-
-7-7---------

E
-7-----------
------------
-7-----------
-------5--6--


   B     D#m E                B     D#m E
e
-------------
------------
-------------
------------

B
--------7--9-
-9----------
--------7--9-
------------

G
-8------8--9-
-9----------
-8------8--9-
------------

D
-9-----------
------------
-9-----------
------------

A
--------6--7-
-7----------
--------6--7-
------------

E
-7-----------
------------
-7-----------
------------



 /   slide up

 \   slide down

 h   hammer-on

 p   pull-off

 ^   bend lower note to higher note

  artificial harmonic

 x   Mute note

 tr  trill lower note with higher note

 ~   vibrato
 


/
How To Set Up Higher Praise As Your Home Page
Copyright 1999, Higher Praise HigherPraise,Inc. All rights reserved. Terms of Use

Enjoy A Life Changing Experience

 
 
 
HigherPraise, Higher Praise, HigherPraise, Higher Praise, HigherPraise

Members..Sign Up. LogIn

 
 

Higher Praise Other Sites
 
 

HigherPraise.org/
Praise And Worship
www.higherpraise.org

HigherPraise.net
Christian Resources
www.higherpraise.net

HigherPraiseTube.com
Videos And Audios
www.higherpraisetube.com.


ChristianLyrics.org

Lyrics And Chrords
www.christianlyrics.org

ChristianChordsLyrics

Lyrics And Chrords
www.christianchordslyrics.com

ChristianChordLyrics

Lyrics And Chrords
www.christianchordlyrics.com

WorshipLyrics.org
10.000 Illustrations
www.worshiplyrics.org

WorshipLyrics.net
10.000 Illustrations
www.worshiplyrics.net

PraiseLyrics.com
PowerPoint Lyrics

www.praiselyrics.com

PraiseLyrics.org
PowerPoint Lyrics

www.praiselyrics.org

1GodTube.com
Chistian Videos

www1godtube..com

OneGodTube.com
Chistian Videos

www.onegodtube..com

 

/
Copyright 1999 - 2019, Higher Praise™ HigherPraise™,Inc. All rights reserved. Terms of Use