Higher Praise - Guitar Chords, Lyrics  GuitarTabs -  Praise nad Worship Music And Christian Songs

Higher Praise - Guitar Tabs, Guitar Chords, Lyrics
   Lyrics, Chords And Tabs
   Popular Lyrics Chords Tab
   Power Point Lyrics
   Praise & Worship Music
   Christian Music Videos
   15900 Videos & Audios
   Midi Files
   Worship Questions
   Christmas Chords, Lyrics
   Lyrics, Chords Tabs Rated

Sermon Outlines And Audio Sermons
   9344 Sermon Outlines
   N.T. Sermon Outlines
   O.T. Sermon Outlines
   Special Guest Outlines
   10.000 Illustrations
   Sunday School Studies
   Bible College Studies
   Greatest Preachers
   Bible Research Tools
Audio Sermons
   2895 Audio Sermons
   85 Sermon Videos
   291 Special Guests Serm

   Complete Audio Bible
Higher Praise Sunday School Teaching
   Children's NT Studies
   Children's OT Studies

   98 Children's Midis
   Gospel For Kids Movie
   Children's JESUS Film
Higher Praise Christian Video Library ,Videos
   Christian Television
   TBN TV Live
   15,000 Videos - HP Tube
   712 Youth Music Vids
  Christian Video Library
   Praise Videos #1 & #2
   85 Sermon Videos
   Prophecy Film -Videos
   JESUS Film -Video
   Childrens JESUS Film
   Gospel For Kids Movie
   Passion Of The Christ
   Noah, Sodom, Sinai, Ark
   Tsunami Videos Photos
News And Information
   Testimonies
   Submit Lyrics, Tabs, Serm
   10.000 Illustrations
   Bible College Course
   Clipart & Web Graphics
   Greatest Preachers
   Complete Talking Bible
   Christian Chat Rooms
   Links Church Resource
   HP Statement Of Faith
Download Clipart
   Audio Sermons
   Clipart & Web Graphics
   Church Administration
   Bible Study Software
   Screen Savers Software
   Verse A Day Software
   Educational Games
   Trade Center Photos

   Soft. Search Engine
Higher Praise News
   Current News
    Archived News
   Submit News
   Newsletter   Higher Praise Interact Prayer
   Prayer For All Needs
   
Submit Lyrics, Sermons
   
Contact Higher Praise
   
Advertising 
   Privacy Policy
//
He Died For You,  Click For Answer! This Is Who Jesus Is Video

'
 
0-9 A B C D E F G H I J K L M N O P Q R S T U V W X Y Z
.

//
Click For Printable...Version Of This File
 

Hungarian Dance No 5


by Johannes Brahms




#----------------------------------PLEASE NOTE---------------------------------#
#This file is the author's own work and represents their interpretation of the #
#song. You may only use this file for private study, scholarship, or research. #
#------------------------------------------------------------------------------##
#


Subject: APG-Brahms Hungarian Dance #5
Date: Thu, 10 Oct 1996 19:11:01 -0700

Fellow Guitarists,

Here's my first TAB draft for Brahms' "Hungarian Dance No.5 in F# Minor".  This is a
standard you'll quickly recognize from the opening theme. Please let me know
if this works for you and of any editting needed.  Also, if you have any other
classical, traditional, folk or other favorites you'd like to see drop me a note. I'm
always looking for arrangement projects.


listing of other tunes I've arranged, including some originals.  Also,
contact me about the tape swap if you've got some recordings of your own work to share.

I usually keep up to date on the newsgroup at rec.music.makers.guitar.tablature
if you want to make a public comment on my project there.  Use APG in subject line to
catch fellow afficianadoes eye.

Les at APG

***********************************************************************

HUNGARIAN DANCE No. 5  IN F# MINOR
by Johannes Brahms, 1869

Standard Tuning (transposed up 2 halfsteps)
arr. by L. Weller

(This plays a good bit slower than the symphonic version.
"*" denotes theme in Section 1)

  Section 1  (see alternate)
  1  Am               E         Am        Dm       h
E --------------------------------------
-1---------------------

B -----------1----------------0---------
---3-------------------

G ----(2)--2--(2)--2--1-----2---2-------
-----2--0-2------------

D ---2------------------2---------2---2-
-0---------------------

A ---0-------0------------3-------------
-----------------------

E ------(0)-----(0)-----------------0---
-----------------------

     *     * *     *  *     * * *         *      * *
  2  A         E                              h
E ---0-----------------0----------
-------------0-------------

B -----1---1---3-1-0-0------------
---------0-1---1---1-------

G -------2-----1-----1----2-------
---2---2---------2---------

D -------------------2------2---2-
-2-------------------------

A ---0--------------------0---0---
-0-----------0-------------

E -----------0--------------------
-----0-----------0---------

     *         * * * * *  *         *     * * * *     *
  3                           h       h       h     h
E ---------------------
------5-------3-----0-1-------0----

B --0-----1--3-1-----1-
--6-8---6-5-6---5-3-----3-1-3---1--

G ----1-----------2----
-----------------------------------

D ------2--------------
--0---------------0----------------

A -------------0-------
----------0------------------------

E --0------------------
-----------------------------------

    *     *  *
                       Section 2
  4                       C  C  F       C     G     h
E -------------0-----
---0--0--1-------0--0----------0-----0---

B --3--1--0--0-------
---1--1--1-------1--1--2---2-3---3-2---2-

G --1--1--1--1---1--o
o--0--0--2--2----0--0--0-----------------

D -----------2---2--o
o--------3-------------------------------

A ---------------2---
---3--3-------3-----3--------------------

E -------------------
-------------------------3---------------


  5       ar         C        h h
E --------0-------------------------------

B --2--2--0--0----2--2--1---0-1-3-1-0-3-1-

G --0--0--0----0--0--0--0-----------------

D ----------------------------------------

A --------2----------3----3---------------

E --3--3----------------------------------


  (slower)                                 (hard and fast)
  6 E    ar           Am    h     p         E
E ---------------------------------------
--0--------------

B --0--0--3--1---0--0----------0-----0-2-
--0--------------

G --1--1--1--1---1--1--2---1-2---2-1-----
--1--------2-2---

D --2--2--2--2---2--2--2-----------------
--2--------------

A -----------------------0---------------
--2--------0-0---

E --0--0--0----0----0--------------------
--0--0-2-4-------


                   Section 3(Fast)
  7   h     p        ar
E -----------------
--5--0-0-0-0----------------
--5-----------

B ------0-----0----
--5--5-5-5-5-----------5--5-
--5--5-5-5-5--

G --1-2---2-1---2-o
o-6--6-6-6-6--7--6--7--6--6-
--6--6-6-6-6--

D ----------------o
o------7---------7--------7-
-------7------

A -----------------
--0--------0-----------0----
--0--------0--

E -----------------
----------------------------
--------------



                 Section 4 (Slow then fast)
  8
E ---------------
----------------------------------5-----

B ---------------
---2----2----2----0-----2-2-3-3-5---5---

G --7-6-4-------o
o--2----3----2----1-----2-2-2-2-6---6---

D ----0---7--7--o
o--2----0----2----2---------0-0-7---7---

A ---------------
---0---------0----------0-0-------------

E ---------------
------------------0---------------------



  9                      ar
E -------------0----0----0---------5-----

B ---2----2----0----2----2-3-2-0---------

G ---2----3----1----2----2-------2---2--o
 Return to
D ---2----0-----------------------------o
 Section A (once)
A ---0--------------0----0---------------
 Section B (once)
E -------------0-------------------------
 to FINE


ar = arpeggio roll  (0) = grace note   st = Strum slow
p  =  Pull Off     /s = slide up     Sb = Slide bass note
h  =  Hammer on    \s = Slide down   W = Whole note (sustain)

NOTE: This file is the author's own work and represents his
interpretation of the song. You may only use this file for
private study, scholarship, or research.

Tab by L. Weller - brahms01.txt - 10/10/96
for American Primitive Guitar

Alternate Section 1
                              /s                  /s
E --------5--8-----5--4------5-7--5--------1-----3-5--0-------

B --5----------5--------5-----------5---5----3----------1---1-

G ----5----------5--------4-----------5--------2----------2---

D ------7--------7--------6-----------7----0--------------2---

A -----------0--------------------0-------------------0-------

E --0---------------------------------------------------------


    ar
E -----------0----

B --3--1-0-0------

G --1----------2--

D --2-------------

A -------------0--

E --0-------------

 


/
How To Set Up Higher Praise As Your Home Page
Copyright 1999, Higher Praise HigherPraise,Inc. All rights reserved. Terms of Use

Enjoy A Life Changing Experience

 
 
 
HigherPraise, Higher Praise, HigherPraise, Higher Praise, HigherPraise

Members..Sign Up. LogIn

 
 

Higher Praise Other Sites
 
 

HigherPraise.org/
Praise And Worship
www.higherpraise.org

HigherPraise.net
Christian Resources
www.higherpraise.net

HigherPraiseTube.com
Videos And Audios
www.higherpraisetube.com.


ChristianLyrics.org

Lyrics And Chrords
www.christianlyrics.org

ChristianChordsLyrics

Lyrics And Chrords
www.christianchordslyrics.com

ChristianChordLyrics

Lyrics And Chrords
www.christianchordlyrics.com

WorshipLyrics.org
10.000 Illustrations
www.worshiplyrics.org

WorshipLyrics.net
10.000 Illustrations
www.worshiplyrics.net

PraiseLyrics.com
PowerPoint Lyrics

www.praiselyrics.com

PraiseLyrics.org
PowerPoint Lyrics

www.praiselyrics.org

1GodTube.com
Chistian Videos

www1godtube..com

OneGodTube.com
Chistian Videos

www.onegodtube..com

 

/
Copyright 1999 - 2019, Higher Praise™ HigherPraise™,Inc. All rights reserved. Terms of Use