Higher Praise - Guitar Chords, Lyrics  GuitarTabs -  Praise nad Worship Music And Christian Songs

Higher Praise - Guitar Tabs, Guitar Chords, Lyrics
   Lyrics, Chords And Tabs
   Popular Lyrics Chords Tab
   Power Point Lyrics
   Praise & Worship Music
   Christian Music Videos
   15900 Videos & Audios
   Midi Files
   Worship Questions
   Christmas Chords, Lyrics
   Lyrics, Chords Tabs Rated

Sermon Outlines And Audio Sermons
   9344 Sermon Outlines
   N.T. Sermon Outlines
   O.T. Sermon Outlines
   Special Guest Outlines
   10.000 Illustrations
   Sunday School Studies
   Bible College Studies
   Greatest Preachers
   Bible Research Tools
Audio Sermons
   2895 Audio Sermons
   85 Sermon Videos
   291 Special Guests Serm

   Complete Audio Bible
Higher Praise Sunday School Teaching
   Children's NT Studies
   Children's OT Studies

   98 Children's Midis
   Gospel For Kids Movie
   Children's JESUS Film
Higher Praise Christian Video Library ,Videos
   Christian Television
   TBN TV Live
   15,000 Videos - HP Tube
   712 Youth Music Vids
  Christian Video Library
   Praise Videos #1 & #2
   85 Sermon Videos
   Prophecy Film -Videos
   JESUS Film -Video
   Childrens JESUS Film
   Gospel For Kids Movie
   Passion Of The Christ
   Noah, Sodom, Sinai, Ark
   Tsunami Videos Photos
News And Information
   Testimonies
   Submit Lyrics, Tabs, Serm
   10.000 Illustrations
   Bible College Course
   Clipart & Web Graphics
   Greatest Preachers
   Complete Talking Bible
   Christian Chat Rooms
   Links Church Resource
   HP Statement Of Faith
Download Clipart
   Audio Sermons
   Clipart & Web Graphics
   Church Administration
   Bible Study Software
   Screen Savers Software
   Verse A Day Software
   Educational Games
   Trade Center Photos

   Soft. Search Engine
Higher Praise News
   Current News
    Archived News
   Submit News
   Newsletter   Higher Praise Interact Prayer
   Prayer For All Needs
   
Submit Lyrics, Sermons
   
Contact Higher Praise
   
Advertising 
   Privacy Policy
//
He Died For You,  Click For Answer! This Is Who Jesus Is Video

'
 
0-9 A B C D E F G H I J K L M N O P Q R S T U V W X Y Z
.

//
Click For Printable...Version Of This File
 

Canon In D Solo


by Johann Pachelbel




W                    H          H             H          H          
-------------------
------------------------
------------------------

-------------------
--19~--------17~--------
--15~--------14~--------

-------------------
------------------------
------------------------

-------------------
------------------------
------------------------

-------------------
------------------------
------------------------

-------------------
------------------------
------------------------



   H          H             H          Q      E   E   
------------------------
----------------------------

--12~--------10~--------
--12~--------14~----15--17--

------------------------
----------------------------

------------------------
----------------------------

------------------------
----------------------------

------------------------
----------------------------



                      
---3---
                                         
   H          E   E   S   S   S  E      Q.       S   S  E   E   E   E   
--14~------------15--14h-15p-14-----
----------------------14--17--19--

-------------17-----------------17--
--15~------17p-15-14--------------

------------------------------------
----------------------------------

------------------------------------
----------------------------------

------------------------------------
----------------------------------

------------------------------------
----------------------------------



       
--3--
                  
--3--
      
   E   S  S  S  E   E   E   E   S  S  S  E   
--15--14-15-14-----15--14-------------------

---------------17----------17--15-17-15-----

----------------------------------------14--

--------------------------------------------

--------------------------------------------

--------------------------------------------



   E   E   E   E   T   T  T   T  T   T  T   T  T   T  T   T  T   T  T   T  
--------------------------------------------------------------------------

--------------15--14h-15-14h-15-14h-15-14h-15-14h-15-14h-15-14h-15-14h-15-

--16--14--12--------------------------------------------------------------

--------------------------------------------------------------------------

--------------------------------------------------------------------------

--------------------------------------------------------------------------



       PM PM       PM PM         PM PM       PM PM         PM PM    PM    PM  
  Q    E  E  E  E  E  E     Q    E  E  E  E  E  E     Q    E  E  E  E  E  E   
-------------------------
-------------------------
-------------------------

-------------8--7--------
-------------5--7--------
-------------2-----3-----

--7----------------------
-------------------------
--4----------------------

--7----------------------
--7----------------------
--4----------------------

--5----5--5--------5--5--
--7----------------0--0--
--2----2--2-----2-----2--

-------------------------
--5----5--5--------------
-------------------------



       PM PM    PM    PM         PM PM PM                  PM PM              
  Q    E  E  E  E  E  E     Q    E  E  E  Q     E     Q    E  E  E  E  E  E   
-------------------------
-------------------------
-------------------------

-------------------------
-------------------------
-------------8--7--5-----

-------------------------
----------------4S----6--
--7-------------------7--

--4----------2-----4-----
--5-------------5S----7--
--7----------------------

--4----------2-----4-----
--5----------------------
--5----5--5--------------

--2----2--2--0--0--2--2--
--3----3--3--3-----------
-------------------------



       PM PM                       PM PM                
  Q    E  E  E   E   E  E     Q    E  E  E   E   E  E   
---------------------------
---------------------------

---------------------------
---------------------------

-------------4S--6h--7--6--
-------------6S--7h--9--7--

--5------------------------
--7------------------------

--5------------------------
--7------------------------

--3----3--3----------------
--5----5--5----------------



       PM PM       PM PM         PM PM       PM PM         PM PM    PM    PM  
  Q    E  E  E  E  E  E     Q    E  E  E  E  E  E     Q    E  E  E  E  E  E   
-------------------------
-------------------------
-------------------------

-------------8--7--------
-------------5--7--------
-------------2-----3-----

--7----------------------
-------------------------
--4----------------------

--7----------------------
--7----------------------
--4----------------------

--5----5--5--------5--5--
--7----------------0--0--
--2----2--2-----2-----2--

-------------------------
--5----5--5--------------
-------------------------



       PM PM    PM    PM         PM PM PM                  PM PM              
  Q    E  E  E  E  E  E     Q    E  E  E  Q     E     Q    E  E  E  E  E  E   
-------------------------
-------------------------
-------------------------

-------------------------
-------------------------
-------------8--7--5-----

-------------------------
----------------4S----6--
--7-------------------7--

--4----------2-----4-----
--5-------------5S----7--
--7----------------------

--4----------2-----4-----
--5----------------------
--5----5--5--------------

--2----2--2--0--0--2--2--
--3----3--3--3-----------
-------------------------



       PM PM                       PM PM PM                                  
  Q    E  E  E   E   E  E     Q    E  E  E    Q.          W                  
---------------------------
--------------------------
---------------------

---------------------------
--------------------------
--19~----------------

-------------4S--6h--7--6--
----------------<>6~------
---------------------

--5------------------------
--7-----------------------
---------------------

--5------------------------
--7-----------------------
---------------------

--3----3--3----------------
--5----5--5--5------------
---------------------



                                                                      PM  PM  
   H         H            H         E   Q.           H          Q     E   E   
----------------------
--------------------------
---------------------------

--17\-----------------
--15~-----------15br------
--14~----------------------

----------------------
--------------------------
-------------14------------

----------------------
--------------------------
-------------------12--12--

----------------------
--------------------------
---------------------------

----------------------
--------------------------
---------------------------



              
-----3-----
                               
    H         Q     Q     Q        Q     Q     H          
-------------------------------
-------------------------

-------------------------------
--------15---------------

--/16~--------L----14----12----
--14----------11~--------

-------------------------------
-------------------------

-------------------------------
-------------------------

-------------------------------
-------------------------



               
-----3-----
                                
    H          Q     Q     Q        H.             E    E   
--------------------------------
--------------------------

--------------------------------
--14b------------15S--17--

--/16~--------16----14----12----
--------------------------

--------------------------------
--------------------------

--------------------------------
--------------------------

--------------------------------
--------------------------



   H         E   Q.            H.            Q        H         E   Q.         
--14~-----------14pbr------
----------------------
---------------------------

---------------------------
--17~-----------------
--15~-----------15pbr------

---------------------------
----------------------
---------------------------

---------------------------
----------------------
---------------------------

---------------------------
----------------------
---------------------------

---------------------------
----------------------
---------------------------



   Q     Q     Q     Q        Q      Q     Q     Q      
--------14----17~---------
--19~----17----15----17b----

--14----------------------
----------------------------

--------------------------
----------------------------

--------------------------
----------------------------

--------------------------
----------------------------

--------------------------
----------------------------



   Q      Q     Q     Q        Q      Q     Q     Q     
--17~----15----14----17----
--19~----17----15----19----

---------------------------
---------------------------

---------------------------
---------------------------

---------------------------
---------------------------

---------------------------
---------------------------

---------------------------
---------------------------



   W                       Q    Q    Q    Q       H         Q    Q     
--19pbr~----------------
----------------------
----------------------

------------------------
----------------------
----------------------

------------------------
--7----6----7---------
-----------------6----

------------------------
----------------------
--7~--------9---------

------------------------
-----------------9----
----------------------

------------------------
----------------------
----------------------



       PM PM                                                             
                                                     
--3--
             
  Q    E  E  Q    Q        W                    Q    E  E  E  Q    Q     
-----------------------
---------------------
--------------------------

------------------7----
--10b----------------
--8----7--8--7-------8----

--7----6--6--7---------
---------------------
----------------9---------

-----------------------
---------------------
--------------------------

-----------------------
---------------------
--------------------------

-----------------------
---------------------
--------------------------



                                                          PM PM PM PM          
  E  E  E  E  H            Q    Q    Q    Q         Q     E  E  E  E    Q      
------------------------
----------------------
------------------------------

--7---------------------
----------------------
------------------------------

-----9--7---------------
-----------------7----
--<>6b------------------------

-----------9--7~--------
--9----7----5---------
----------7-------------------

------------------------
----------------------
-------------7--5--4----------

------------------------
----------------------
----------------------<>5~----



  Q    Q    Q    Q       H         Q    Q       E  E  E   E    E   E   E   E   
----------------------
----------------------
--------7--10S--14--10----------

----------------------
----------------------
-----7------------------12------

--7----6----7---------
-----------------6----
--7-------------------------11--

----------------------
--7~--------9---------
--------------------------------

-----------------9----
----------------------
--------------------------------

----------------------
----------------------
--------------------------------



                                       
--3--
             
   Q.        S   S  Q     Q       Q    E  E  E  Q    Q     
-------------------------------
--------------------------

--10b~------10S-12-10~---------
--8----7--8--7-------8----

-------------------------------
----------------9---------

-------------------------------
--------------------------

-------------------------------
--------------------------

-------------------------------
--------------------------



  Q      Q     Q     Q        E   E   E   E   E   E   E   E   
--------------10----14----
--15--14--12----------------------

--7S----10----------------
--------------15--14--12----------

--------------------------
--------------------------14--12--

--------------------------
----------------------------------

--------------------------
----------------------------------

--------------------------
----------------------------------



   E   E   E   E   E   E   Q     
--------------------------------

--------------------------------

--18--16--14--------------------

--------------17--16--14S--7----

--------------------------------

--------------------------------



                  
----3---
                    
  S  S  S S  S S  E    E   E   S  S  S  S   E   
---------------9-12S--17--12-------------------

------------10----------------14---------------

----------9----------------------14------------

-------11---------------------------14---------

--7-12---------------------------------12S-16--

-----------------------------------------------



               
-----5-----
                                               
   S  S  S  S  S  S  S  S  S  Q     Q        Q      E   E   Q      E   E   
--21-17-------17-12----------------------
--17~----14--15--17~----14--15--

--------17----------14-------------------
--------------------------------

-----------18----------14----------------
--------------------------------

--------------------------14-------------
--------------------------------

-----------------------------12~---------
--------------------------------

-----------------------------------------
--------------------------------



   E   E   E   E   E   E   E   E      Q      E   E   Q      E   E   
--17----------------------14--15--
--14~------------14~------------

--------------14--15--17----------
---------15--17-----------------

------14--16----------------------
--------------------------------

----------------------------------
------------------------16--17--

----------------------------------
--------------------------------

----------------------------------
--------------------------------



   E   E   E   E   E   E   E   E      Q      E   E   Q      E   E   
----------------------------------
--------------------------------

----------------------15--14--15--
--------------------------------

--14--16--14------14--------------
---------16--14-----------------

--------------17------------------
--17~------------17~----16--14--

----------------------------------
--------------------------------

----------------------------------
--------------------------------



   E   E   E   E   E   E   E   E      Q      E   E   Q      E   E   
----------------------------------
--------------------------------

----------------------------------
------------------------14--15--

--------------------------14--16--
---------16--14--16~------------

--16--14------14--16--17----------
--17~---------------------------

----------17----------------------
--------------------------------

----------------------------------
--------------------------------



   E   E   E   E   E   E   E   E      Q      E   E   Q      E   E   
----------------------14--15--17--
--14~------------14~------------

----------14--15--17--------------
---------15--17---------17--15--

--14--16--------------------------
--------------------------------

----------------------------------
--------------------------------

----------------------------------
--------------------------------

----------------------------------
--------------------------------



   E   E   E   E   Q      E   E      Q      E   E   Q      E   E   
---------------------------------
--------------------------------

--17--14--15--17--17b----15--14--
--15~--------14--15~------------

---------------------------------
---------16---------------------

---------------------------------
------------------------16--17--

---------------------------------
--------------------------------

---------------------------------
--------------------------------



   E   E   E   E   E   E   E   E      Q      E   E   Q      E   E   
----------------------------------
--------------------------------

----------------------15--14--15--
---------15--14-----------------

--14--16--14------14--------------
--16~------------16~----14------

--------------17------------------
----------------------------17--

----------------------------------
--------------------------------

----------------------------------
--------------------------------



   E   E   E   E   E   E   E   E      Q      E   E   Q      E   E   
----------------------------------
--------------------------------

--------------------------14--15--
---------15--14--15~----14------

--14--------------14--16----------
--16~-----------------------16--

------17--16--17------------------
--------------------------------

----------------------------------
--------------------------------

----------------------------------
--------------------------------



                                                      PM PM  
   E   E   E   E   E   E   E   E      H         E  E  E  E   
----------------------------------
-------------------------

--14--15--17--15--14--15------14--
--15~--------8--7--------

--------------------------16------
-------------------------

----------------------------------
-------------------------

----------------------------------
-------------------5--5--

----------------------------------
-------------------------



       PM PM       PM PM         PM PM    PM    PM         PM PM    PM    PM  
  Q    E  E  E  E  E  E     Q    E  E  E  E  E  E     Q    E  E  E  E  E  E   
-------------------------
-------------------------
-------------------------

-------------5--7--------
-------------2-----3-----
-------------------------

-------------------------
--4----------------------
-------------------------

--7----------------------
--4----------------------
--4----------2-----4-----

--7----------------0--0--
--2----2--2-----2-----2--
--4----------2-----4-----

--5----5--5--------------
-------------------------
--2----2--2--0--0--2--2--



       PM PM PM                  PM PM                     PM PM                
  Q    E  E  E  Q     E     Q    E  E  E  E  E  E     Q    E  E  E   E   E  E   
-------------------------
-------------------------
---------------------------

-------------------------
-------------8--7--5-----
---------------------------

----------------4S----6--
--7-------------------7--
-------------4S--6h--7--6--

--5-------------5S----7--
--7----------------------
--5------------------------

--5----------------------
--5----5--5--------------
--5------------------------

--3----3--3--3-----------
-------------------------
--3----3--3----------------



   
---3---
   
---3---
   
---3---
   
---3---
                          
   E   E   E   E   E   E   E   E   E   E   E   E      W                   
--------------------------------------------------
----------------------

--------------------------------------14--15--17--
--17b~----------------

--------------14--16--18--14--16--18--------------
----------------------

--14--16--17--------------------------------------
----------------------

--------------------------------------------------
----------------------

--------------------------------------------------
----------------------



     H.            Q        H         E     Q.         
------------------------
-----------------------------

--<>17b-----------------
--15~-----------<>15brb------

------------------------
-----------------------------

------------------------
-----------------------------

------------------------
-----------------------------

------------------------
-----------------------------



                    PM  PM                               
   H          Q     E   E        H         E   Q     E   
---------------------------
----------------------------

--14~----------------------
----------------------------

-------------14------------
--<>16~--------L--14----12--

-------------------12--12--
----------------------------

---------------------------
----------------------------

---------------------------
----------------------------



   Q     Q     H             S  S  S  S  S  S  S  S  S  S  S  S  S  S  S  S  
-------------------------
--------------------------------------------------

--------15---------------
--------------12-12-12-12-14-14-14-14-15-15-15-15-

--14----------11~--------
--12-12-12-12-------------------------------------

-------------------------
--------------------------------------------------

-------------------------
--------------------------------------------------

-------------------------
--------------------------------------------------



                                       
-----5-----
                           
   S  S  S  S  S  S  S  S  S  S  S  S  S  S  S  S  S     H.              Q     
-----------14-15-17-15-14----------------------------
------------------------

--14-15-17----------------17-15-14----------14-15-17-
--17b~------------22----

-----------------------------------16-14-16----------
------------------------

-----------------------------------------------------
------------------------

-----------------------------------------------------
------------------------

-----------------------------------------------------
------------------------



   H            Q     Q        H         E   Q.         
---------------------------
---------------------------

--17pbr--------15----14----
--15~-----------15pbr------

---------------------------
---------------------------

---------------------------
---------------------------

---------------------------
---------------------------

---------------------------
---------------------------



   Q     Q     Q     Q        Q      Q     Q     Q     
--------14----17~---------
--19~----17----15----19----

--14----------------------
---------------------------

--------------------------
---------------------------

--------------------------
---------------------------

--------------------------
---------------------------

--------------------------
---------------------------



   Q      Q     H              S  S  S  S  S  S  S  S  S  S  S  S  S  S  S  S  
--17~----21----21b~--------
--19-15----------15-19-15-19-15----------15-19-15-

---------------------------
--------15----15----------------15----15----------

---------------------------
-----------16----------------------16-------------

---------------------------
--------------------------------------------------

---------------------------
--------------------------------------------------

---------------------------
--------------------------------------------------



                                           PM    PM    PM         
   S  S  S  S  S  S  S  S  H            E  E  E  E  E  E  E   E   
--21-17-------21-17------------------
---------------------------

--------17----------17---------------
---------------------------

-----------18----------18S-9~--------
--7-----6-----7------------

-------------------------------------
-----0-----0-----0--4h--5--

-------------------------------------
---------------------------

-------------------------------------
---------------------------



                                     PM    PM    PM    PM  
  E   E  E   E   E   E  E   E     E  E  E  E  E  E  E  E   
-------------------------------
--------------------------

-------------------------------
--3--0--2--0--3--0--7--0--

------------------------6S--2--
--------------------------

--7S--9--7p--6h--7h--9---------
--------------------------

-------------------------------
--------------------------

-------------------------------
--------------------------



            PM                                             
     Q.     E  E  E  E   E      E  E   E  E  E  E   E  E   
----------------------------
-----------------------------

--<>10---------------7--10--
--12--0--10--0--8--0--12--0--

------------6--7--9---------
-----------------------------

----------------------------
-----------------------------

----------------------------
-----------------------------

----------------------------
-----------------------------



         
---3---
               
   Q     E   E   E   Q.      E   
--------------------------------

--10------------10--15~---------

------------11------------------

--------12----------------------

--------------------------------

--------------------------------



   S  S  S  S  S  S  S  S  S  S  S  S  S  S  S  S  
--------------------------------------------------

--15-12----------------12-15-12----------------12-

--------12----------12----------12----------12----

-----------12----12----------------12----12-------

--------------14----------------------14----------

--------------------------------------------------



                                          PM    PM    PM         
   S  S  S  S  S  S  S  S H            E  E  E  E  E  E  E   E   
------------------------------------
---------------------------

--17-14-------17-14-----------------
---------------------------

--------14----------14--------------
--7-----6-----7------------

-----------14----------14-7~--------
-----0-----0-----0--4h--5--

------------------------------------
---------------------------

------------------------------------
---------------------------



                                     PM    PM    PM    PM  
  E   E  E   E   E   E  E   E     E  E  E  E  E  E  E  E   
-------------------------------
--------------------------

-------------------------------
--3--0--2--0--3--0--7--0--

------------------------6S--2--
--------------------------

--7S--9--7p--6h--7h--9---------
--------------------------

-------------------------------
--------------------------

-------------------------------
--------------------------



     W                     E  E   E  E  E  E   E  E   
-----------------------
-----------------------------

--<>10b----------------
--12--0--10--0--8--0--12--0--

-----------------------
-----------------------------

-----------------------
-----------------------------

-----------------------
-----------------------------

-----------------------
-----------------------------



   Q      S  S  S  S  S  S  S  S  S  S  S  S  
------------------10-14-17-14----------14-17-

--10~----------10-------------15----15-------

------------11-------------------14----------

---------12----------------------------------

---------------------------------------------

---------------------------------------------



   S  S  S  S  S  S  S  S  S  S  S  S  S  S  S  S     H.             Q     
--19-15----------15-19-15-19-15----------15-19-15-
--19b~-----------------

--------15----15----------------15----15----------
-----------------------

-----------16----------------------16-------------
-----------------------

--------------------------------------------------
-----------------------

--------------------------------------------------
-----------------------

--------------------------------------------------
-----------------------



   Q      E   E   Q      E   E      E   E   E   E   E   E   E   E   
--17~----14--15--17~----14--15--
--17----------------------14--15--

--------------------------------
--------------14--15--17----------

--------------------------------
------14--16----------------------

--------------------------------
----------------------------------

--------------------------------
----------------------------------

--------------------------------
----------------------------------



   Q      E   E   Q      E   E      E   E   E   E   E   E   E   E   
--14~------------14~------------
----------------------------------

---------15--17-----------------
----------------------15--14--15--

--------------------------------
--14--16--14------14--------------

------------------------16--17--
--------------17------------------

--------------------------------
----------------------------------

--------------------------------
----------------------------------



   Q      E   E   Q      E   E      E   E   E   E   E   E   E   E   
--------------------------------
----------------------------------

--------------------------------
----------------------------------

---------16--14-----------------
--------------------------14--16--

--17~------------17~----16--14--
--16--14------14--16--17----------

--------------------------------
----------17----------------------

--------------------------------
----------------------------------



   Q      E   E   Q      E   E      E   E   E   E   E   E   E   E   
--------------------------------
----------------------14--15--17--

------------------------14--15--
----------14--15--17--------------

---------16--14--16~------------
--14--16--------------------------

--17~---------------------------
----------------------------------

--------------------------------
----------------------------------

--------------------------------
----------------------------------



   Q      E   E   Q      E   E      E   E   E   E   Q      E   E   
--14~------------14~------------
---------------------------------

---------15--17---------17--15--
--17--14--15--17--17b----15--14--

--------------------------------
---------------------------------

--------------------------------
---------------------------------

--------------------------------
---------------------------------

--------------------------------
---------------------------------



   Q      E   E   Q      E   E      E   E   E   E   E   E   E   E   
--------------------------------
----------------------------------

--15~--------14--15~------------
----------------------15--14--15--

---------16---------------------
--14--16--14------14--------------

------------------------16--17--
--------------17------------------

--------------------------------
----------------------------------

--------------------------------
----------------------------------



   Q      E   E   Q      E   E      E   E   E   E   E   E   E   E   
--------------------------------
----------------------------------

---------15--14-----------------
--------------------------14--15--

--16~------------16~----14------
--14--------------14--16----------

----------------------------17--
------17--16--17------------------

--------------------------------
----------------------------------

--------------------------------
----------------------------------



   Q      E   E   Q      E   E      E   E   E   E   E   E   E   E   
--------------------------------
----------------------------------

---------15--14--15~----14------
--14--15--17--15--14--15------14--

--16~-----------------------16--
--------------------------16------

--------------------------------
----------------------------------

--------------------------------
----------------------------------

--------------------------------
----------------------------------



   W                 H           H.            Q       Q    Q    E   S  S Q     
------------------------------
---------------------
--------------------------

--15~-------------------------
---------------------
--------------------------

------------------------------
---------------------
--------------------------

------------------------------
--7~-----------------
--7----9----7h--9p-7-5----

------------------------------
---------------------
--------------------------

------------------------------
---------------------
--------------------------



  H.            Q       Q    Q    E   S  S Q       Q    Q    Q    Q     
---------------------
--------------------------
----------------------

---------------------
--7----8----7h--8p-7------
----------------------

---------------------
---------------------9----
--7----6----4----6----

--4~-----------------
--------------------------
----------------------

---------------------
--------------------------
----------------------

---------------------
--------------------------
----------------------



  H.            Q       Q    Q    Q    Q       W                  
---------------------
----------------------
--------------------

---------------------
----------------------
--------------------

--7~-----------------
--7----6----4----5----
--6~----------------

---------------------
----------------------
--------------------

---------------------
----------------------
--------------------

---------------------
----------------------
--------------------



     PM    PM    PM     PM             PM          PM         
  E  E  E  E  E  E   E  E      E    E  E   E    E  E  E   E   
---------------------------
---------------------------------

---------------------------
---------------------------------

--7-----6-----7-----11-----
--11S--14-----12S--11-----9S--6--

-----0-----0-----0------0--
-----------0-----------0---------

---------------------------
---------------------------------

---------------------------
---------------------------------



     PM    PM    PM     PM             PM          PM           
  E  E  E  E  E  E   E  E      E    E  E   E    E  E   E    E   
---------------------------
-----------------------------------

---------------------------
--------------------------14S--10--

--7-----6-----7-----11-----
--11S--14-----16S--14--------------

-----0-----0-----0------0--
-----------0-----------0-----------

---------------------------
-----------------------------------

---------------------------
-----------------------------------



   
---3---
   
---3--
  
---3--
  
--3--
   
   E   E   E   E  E   E  E   E  E  E  E  E   
--------------------------------------------

--12--12--10--12--8--12--7--10--8--7--------

--------------------------------------9--7--

--------------------------------------------

--------------------------------------------

--------------------------------------------



   
---3--
   
---3--
  
---3--
  
--3--
   
   E   E  E   E  E   E  E  E   E  E  E  E   
-------------------------------------------

--10--10--8--10--7--10---------------------

------------------------9--7S--6-----------

----------------------------------9--7--5--

-------------------------------------------

-------------------------------------------



  
--3--
  
--3--
  
--3--
  
--3--
   
  E  E  E  E  E  E  E  E  E  E  E  E   
--------------------------------------

-----------------------------5--7--8--

-----------4--6--7--4--6--7-----------

--4--5--7-----------------------------

--------------------------------------

--------------------------------------



  
--3--
  
--3--
                        
  E  E  E  E  E  E   S S S  S  S S  S  S  
-----------5--7--9--10-7-9-10-12-9-10-12-

--5--7--8--------------------------------

-----------------------------------------

-----------------------------------------

-----------------------------------------

-----------------------------------------



   S  S  S  S  S  S  S  S  S  S  S  S  S  S  S  S  
--14-10----------10-14-10-14-10----------10-14-10-

--------10----10----------------10----10----------

-----------11----------------------11-------------

--------------------------------------------------

--------------------------------------------------

--------------------------------------------------



   S S  S S  S S  S S  S S  S S  S S  S S  
--12-9---------9-12-9-14-9------12-9------

-------10---10-------------10--------10---

----------9-------------------9---------9-

------------------------------------------

------------------------------------------

------------------------------------------



   S S S S S S  S S  S S S S S S  S S    S S S S S S S S S S S S S S S S  
--10-7-------7-10-7-10-7-------7-10-7-
--9-5-------5-9-5-5-2-----5-2-----

-------7---7-------------7---7--------
------7---7-----------2-------2---

---------7-----------------7----------
--------6---------------2-------2-

--------------------------------------
----------------------------------

--------------------------------------
----------------------------------

--------------------------------------
----------------------------------



  S S S S S S S S  S S S S S S  S S  
--7-3-------3-7-3-10-7-------7-10-7-

------3---3------------8---8--------

--------4----------------7----------

------------------------------------

------------------------------------

------------------------------------



   S  S  S  S  S  S  S  S  S  S  S  S  S  S  S  S  
--14-10-------14-10-------15-10-------17-14-------

--------10----------10----------10----------15----

-----------11----------11----------11----------14-

--------------------------------------------------

--------------------------------------------------

--------------------------------------------------



   S  S  S  S  S  S  S  S  S  S  S  S  S  S  S  S  
--19-15----------15-19-15-19-15----------15-19-15-

--------15----15----------------15----15----------

-----------16----------------------16-------------

--------------------------------------------------

--------------------------------------------------

--------------------------------------------------



   S  S  S  S  S  S  S  S  S  S  S  S  Q         Q      E   E   Q      E   E   
--17-12--------------------------------------
--17~----13--15--17~----13--15--

--------14----17-14--------------------------
--------------------------------

-----------14-------14----18-14--------------
--------------------------------

-----------------------14-------14-----------
--------------------------------

-----------------------------------16-12~----
--------------------------------

---------------------------------------------
--------------------------------



   E   E   E   E   E   E   E   E      Q      E   E   Q      E   E   
--17----------------------13--15--
--13~------------13~------------

--------------14--15--17----------
---------15--17-----------------

------14--15----------------------
--------------------------------

----------------------------------
------------------------15--17--

----------------------------------
--------------------------------

----------------------------------
--------------------------------



   E   E   E   E   E   E   E   E      Q      E   E   Q      E   E   
----------------------------------
--------------------------------

----------------------15--14--15--
--11~----15--13--11~------------

--14--15--14------14--------------
------------------------14--12--

--------------17------------------
--------------------------------

----------------------------------
--------------------------------

----------------------------------
--------------------------------



   E   E   E   E   E   E   E   E      Q      E   E   Q      E   E   
----------------------------------
------------------------12--13--

----------------------11--14--15--
--11~----15--14--15~------------

--14--12--10--12--14--------------
--------------------------------

----------------------------------
--------------------------------

----------------------------------
--------------------------------

----------------------------------
--------------------------------



   E   E   E   E   E   E   E   E      Q      E   E   Q      E   E   
----------------------13--15--17--
--13~------------13~------------

----------14--15--17--------------
---------15--17---------17--15--

--14--15--------------------------
--------------------------------

----------------------------------
--------------------------------

----------------------------------
--------------------------------

----------------------------------
--------------------------------



   E   E   E   E   Q      E   E      Q      E   E   Q      E   E   
---------------------------------
--------------------------------

--17--14--15--17--17b----15--14--
--15~--------14--15~------------

---------------------------------
---------15---------------------

---------------------------------
------------------------15--17--

---------------------------------
--------------------------------

---------------------------------
--------------------------------



   E   E   E   E   E   E   E   E      Q      E   E   Q      E   E   
----------------------------------
--------------------------------

----------------------15--14--15--
--11~----15--13--11~------------

--14--15--14------14--------------
------------------------14--12--

--------------17------------------
--------------------------------

----------------------------------
--------------------------------

----------------------------------
--------------------------------



                                                            
---3---
   
   E   E   E   E   E   E   E   E      Q      E   E   Q      E   E   E   
----------------------------------
------------------------------------

----------------------11--14--15--
--11~----15--14--15~----------------

--14--12--10--12--14--------------
------------------------------------

----------------------------------
------------------------------------

----------------------------------
------------------------12--14--16--

----------------------------------
------------------------------------



   
---3---
   
---3---
   
---3---
   
---3---
                       
   E   E   E   E   E   E   E   E   E   E   E   E     W                 
--------------------------------------14--15--17--
-------------------

--------------------------14--15--17--------------
-------------------

--------------12--14--16--------------------------
-------------------

--12--14--16--------------------------------------
-------------------

--------------------------------------------------
-------------------

--------------------------------------------------
-------------------



   E   E   E   E   E   E   E   E      Q      E   E   Q      E   E   
--17----------------------14--15--
--14~------------14~----14--15--

--------------14--15--17----------
---------15--17-----------------

------14--16----------------------
--------------------------------

----------------------------------
--------------------------------

----------------------------------
--------------------------------

----------------------------------
--------------------------------



                   
-----3-----
                   
-----3-----
     
   E   E   E   E   Q     Q     Q        H          Q     Q     Q     
--17--19--17--15--17----19----21----
--21b~--------L----21----19----

------------------------------------
-------------------------------

------------------------------------
-------------------------------

------------------------------------
-------------------------------

------------------------------------
-------------------------------

------------------------------------
-------------------------------



   Q.       S   S   S   S   S   S   S  S   S   S  
--17~------14h-17h-19p-17p-14h-17p-14------------

--------------------------------------17h-19p-17-

-------------------------------------------------

-------------------------------------------------

-------------------------------------------------

-------------------------------------------------



   S   S   S   S   S  S   S   S   S   S   S  S   S   S   S   S  
---------------------------------------------------------------

--19p-17p-15h-17p-15-------------------------------------------

---------------------16h-19p-16p-14h-16p-14--------------------

--------------------------------------------16h-19p-16p-14h-16-

---------------------------------------------------------------

---------------------------------------------------------------



   
-------5-------
  
-------5-------
              
   S   S   S   S   S  S   S   S   S   S   H          
----------------------------------------------------

----------------------------------------------------

----------------------------------------------------

--19p-16p-14h-16p-14--------------------------------

---------------------19p-16p-14h-16p-14p-12~--------

----------------------------------------------------



   Q      E   E   Q      E   E   
--17~----14--15--17~----14--15--

--------------------------------

--------------------------------

--------------------------------

--------------------------------

--------------------------------



   
---3---
   
---3---
   
---3---
   
---3---
                          
   E   E   E   E   E   E   E   E   E   E   E   E      W                   
--18--18--15--18--14--18------18------18------18--
--19b~----------------

--------------------------17------15------14------
----------------------

--------------------------------------------------
----------------------

--------------------------------------------------
----------------------

--------------------------------------------------
----------------------

--------------------------------------------------
----------------------



  Q     E    E   E   E   E   E      H.              E   E   
--L----19p--17------------------
--17b~------------17--15--

----------------19--18--17--15--
--------------------------

--------------------------------
--------------------------

--------------------------------
--------------------------

--------------------------------
--------------------------

--------------------------------
--------------------------



   Q     S   S   S   S  S   S   S   S   S   S   S   S  
--14----15h-17p-15p-14--------------------------------

-----------------------17p-15p-14S-12h-14h-15p-14p-12-

------------------------------------------------------

------------------------------------------------------

------------------------------------------------------

------------------------------------------------------



   S   S   S   S   S   S   S  S   S   S   S  S  S   S  S   S   
--------------------------------------------------------------

--------------------------------------------------------------

--14p-12p-11h-12h-14p-12p-11S-9h-11h-12p-11p-9----------------

-----------------------------------------------12p-11p-9h-11h-

--------------------------------------------------------------

--------------------------------------------------------------



   S   S  S   S   S   S  S   S  Q     Q        H         Q     Q     
-------------------------------------------
------------------17----

-------------------------------------------
--15~-------------------

-------------------------------------------
------------------------

--12p-11p-9h-11h-12p-11p-9h-11p-7~---------
------------------------

-------------------------------------------
------------------------

-------------------------------------------
------------------------



   H          Q     Q        H        Q     Q        Q     Q     Q     Q     
--17b--------17----15----
--14-------------14----
--14----15----14----------

-------------------------
-----------------------
--------------------17----

-------------------------
-----------------------
--------------------------

-------------------------
-----------------------
--------------------------

-------------------------
-----------------------
--------------------------

-------------------------
-----------------------
--------------------------



               PM PM  PM PM                                               
   Q     Q     E  E   E  E      H          S   S   S   S   S   S   S   S  
----------------------------
--------------------------------------------

--15----14----12--0--14--0--
--15~--------14h-15p-14h-15p-14h-15p-14h-15-

----------------------------
--------------------------------------------

----------------------------
--------------------------------------------

----------------------------
--------------------------------------------

----------------------------
--------------------------------------------



            PM PM  PM PM  PM PM                                      
                                          
-----5-----
              
     Q      E  E   E  E   E  E      Q     S  S  S  S  S  Q     Q     
--------------------------------
--------17-12----------------------

--<>15~----14--0--12--0--13--0--
--14----------14-------------------

--------------------------------
-----------------14----------------

--------------------------------
--------------------14-------------

--------------------------------
-----------------------12~---------

--------------------------------
-----------------------------------



                                             
----3----
   
   H         Q     Q        H          Q     E    E    E   
------------------17----
--17b--------17----15h--17p--15--

--15~-------------------
---------------------------------

------------------------
---------------------------------

------------------------
---------------------------------

------------------------
---------------------------------

------------------------
---------------------------------



   Q.      Q.      Q        W                     H          Q     Q     
--14------17------17----
--20b----------------
--19~--------19----21----

------------------------
---------------------
-------------------------

------------------------
---------------------
-------------------------

------------------------
---------------------
-------------------------

------------------------
---------------------
-------------------------

------------------------
---------------------
-------------------------



   Q.       E    H            Q      E   Q      E   Q      
--21b------17~---L--------
--19S----17--17S----15--15S----

--------------------------
-------------------------------

--------------------------
-------------------------------

--------------------------
-------------------------------

--------------------------
-------------------------------

--------------------------
-------------------------------



   E   Q      E   Q     Q        Q.      E   E    E    E   E    
--14--14S----12--12-----------
--------------------------------

------------------------------
---------10--10S--12p--10S--8S--

-----------------------14S----
--7-----------------------------

------------------------------
--------------------------------

------------------------------
--------------------------------

------------------------------
--------------------------------



                     
--3--
                                   
  Q    E  E  E   E   S  S  S E     E   E   E   E   Q     Q     
--------------------------------
-----------------------------

--7-------7--7h--8p--7h-8p-7----
-----------------------------

-----------------------------9--
--7p--6p--4h--6h--7~---------

--------------------------------
-----------------------------

--------------------------------
-----------------------------

--------------------------------
-----------------------------



  E   E   E   E   Q      Q        Q     E   E   Q      E    E   
------------------------------
------------17--17b----17p--15--

------------------------------
--15~---------------------------

--7p--6p--4h--5h--6S----14----
--------------------------------

------------------------------
--------------------------------

------------------------------
--------------------------------

------------------------------
--------------------------------



   Q     E   E   E    E    E   E      E    E   E    E   Q.      E   
--14~-------14--14h--15p--14------
--------------------------------

------------------------------17--
--15p--14--12h--14--15~---------

----------------------------------
--------------------------------

----------------------------------
--------------------------------

----------------------------------
--------------------------------

----------------------------------
--------------------------------



   E    E   E    E   Q.       S   S     W                   
------------------------------------
---------------------

--15p--14--12h--13--14~------15S-17-
--15~----------------

------------------------------------
---------------------

------------------------------------
---------------------

------------------------------------
---------------------

------------------------------------
---------------------


 


/
How To Set Up Higher Praise As Your Home Page
Copyright 1999, Higher Praise HigherPraise,Inc. All rights reserved. Terms of Use

Enjoy A Life Changing Experience

 
 
 
HigherPraise, Higher Praise, HigherPraise, Higher Praise, HigherPraise

Members..Sign Up. LogIn

 
 

Higher Praise Other Sites
 
 

HigherPraise.org/
Praise And Worship
www.higherpraise.org

HigherPraise.net
Christian Resources
www.higherpraise.net

HigherPraiseTube.com
Videos And Audios
www.higherpraisetube.com.


ChristianLyrics.org

Lyrics And Chrords
www.christianlyrics.org

ChristianChordsLyrics

Lyrics And Chrords
www.christianchordslyrics.com

ChristianChordLyrics

Lyrics And Chrords
www.christianchordlyrics.com

WorshipLyrics.org
10.000 Illustrations
www.worshiplyrics.org

WorshipLyrics.net
10.000 Illustrations
www.worshiplyrics.net

PraiseLyrics.com
PowerPoint Lyrics

www.praiselyrics.com

PraiseLyrics.org
PowerPoint Lyrics

www.praiselyrics.org

1GodTube.com
Chistian Videos

www1godtube..com

OneGodTube.com
Chistian Videos

www.onegodtube..com

 

/
Copyright 1999 - 2019, Higher Praise™ HigherPraise™,Inc. All rights reserved. Terms of Use