Higher Praise - Guitar Chords, Lyrics  GuitarTabs -  Praise nad Worship Music And Christian Songs

Higher Praise - Guitar Tabs, Guitar Chords, Lyrics
   Lyrics, Chords And Tabs
   Popular Lyrics Chords Tab
   Power Point Lyrics
   Praise & Worship Music
   Christian Music Videos
   15900 Videos & Audios
   Midi Files
   Worship Questions
   Christmas Chords, Lyrics
   Lyrics, Chords Tabs Rated

Sermon Outlines And Audio Sermons
   9344 Sermon Outlines
   N.T. Sermon Outlines
   O.T. Sermon Outlines
   Special Guest Outlines
   10.000 Illustrations
   Sunday School Studies
   Bible College Studies
   Greatest Preachers
   Bible Research Tools
Audio Sermons
   2895 Audio Sermons
   85 Sermon Videos
   291 Special Guests Serm

   Complete Audio Bible
Higher Praise Sunday School Teaching
   Children's NT Studies
   Children's OT Studies

   98 Children's Midis
   Gospel For Kids Movie
   Children's JESUS Film
Higher Praise Christian Video Library ,Videos
   Christian Television
   TBN TV Live
   15,000 Videos - HP Tube
   712 Youth Music Vids
  Christian Video Library
   Praise Videos #1 & #2
   85 Sermon Videos
   Prophecy Film -Videos
   JESUS Film -Video
   Childrens JESUS Film
   Gospel For Kids Movie
   Passion Of The Christ
   Noah, Sodom, Sinai, Ark
   Tsunami Videos Photos
News And Information
   Testimonies
   Submit Lyrics, Tabs, Serm
   10.000 Illustrations
   Bible College Course
   Clipart & Web Graphics
   Greatest Preachers
   Complete Talking Bible
   Christian Chat Rooms
   Links Church Resource
   HP Statement Of Faith
Download Clipart
   Audio Sermons
   Clipart & Web Graphics
   Church Administration
   Bible Study Software
   Screen Savers Software
   Verse A Day Software
   Educational Games
   Trade Center Photos

   Soft. Search Engine
Higher Praise News
   Current News
    Archived News
   Submit News
   Newsletter   Higher Praise Interact Prayer
   Prayer For All Needs
   
Submit Lyrics, Sermons
   
Contact Higher Praise
   
Advertising 
   Privacy Policy
//
He Died For You,  Click For Answer! This Is Who Jesus Is Video

'
 
0-9 A B C D E F G H I J K L M N O P Q R S T U V W X Y Z
.

//
Click For Printable...Version Of This File
 

Eyes Of Innocence


by Holy Soldier




#----------------------------------PLEASE NOTE---------------------------------#
#This file is the author's own work and represents their interpretation of the #
#song. You may only use this file for private study, scholarship, or research. #
#------------------------------------------------------------------------------##


Subject: EyesOfInnocence.tab by Holy.Soldier

                          "EYES OF INNOCENCE"
                            by Holy Soldier
                        from the self-titled CD

                       transcribed by Mike Pilato
                       using the standard tuning
                       and typical compu-tabbing
                       conventions: /,\  =  slides
                                    #  =  harmonic
                                    ^  =  bend
                                    p  =  pulloff
                                    h  =  hammer on
****VERSE 1****

---------0--------
---------2--------
---------0--------
---------0--------

-------1---1------
-------0---0------
-----------3------
-----------3------

-----0-------0----
-----2-------2----
-------0-----0----
-------0-----0----

---2-----------2--
---1-----------1--
-----4---------4--
-----4---------4--

-3----------------
-2----------------
---2--------------
---2--------------

------------------
------------------
-0----------------
-0----------------

                                   Re - member  how  we  used  to  laugh and


------------------
------------------
------------------
-----0---#5-------

---------0--------
---------0--------
-----1-------3----
------------------

-------0---0---0--
-------0---0---0--
-------0-------0--
-------0----------

-----2-------2----
-----4-------4----
---2-----2/4------
-4/5--------------

---3--------------
---2--------------
-0----------------
------------------

-1----------------
-3----------------
------------------
------------------

play....  all  the  things  we used to say.....


---------0--------
---------2--------
---------0--------
------------------

-------1---1---1--
-------0---0------
-----------3------
-----0------------

-----0-------0----
-----2-------2----
-------0-----0----
---0---0-----0----

---2--------------
---1-----------1--
-----4---------4--
-2---------4---4--

-3----------------
-2----------------
---2--------------
---------5--------

------------------
------------------
-0----------------
------------------

         How  come  hearts can grow so cold               just   because


------------------
------------------
------------------
------------------

---------0--------
---------0--------
-----1-----3------
-1-----1----------

-------0---0---0--
-------0---0---0--
-------0-----0----
---0-----0--------

-----2-------2----
-----4-------4----
---2-----4-----2--
-----2-----2------

---3--------------
---2--------------
-0----------------
-------------0-2--

-1----------------
-3----------------
------------------
------------------

 we       grow      old....


---------0--------
---------0--------
---------0--------
---------3--------

-------1---1---1--
-----3-----3------
-------3---3---3--
-------3---3------

-----0-------0----
---2---2-----2----
-----0-------0----
-----0-------0----

---2--------------
-0-------------0--
---0--------------
---2-----------2--

-3----------------
------------------
-2----------------
-3----------------

------------------
------------------
------------------
------------------

        Things were   simple  then.        Why  does it   have to end?


------------------
------------------
---------7--------
---------7--------

---------5--------
---------5--------
-----8-----8---8--
-----8-----8---0--

-----5-----5---5--
-----7-----7------
-------9-----9----
-------9-----9----

---5---5-----5----
---7---7-----7----
---9--------------
---9--------------

-3----------------
-5-------------5--
-7----------------
-7----------------

------------------
------------------
------------------
------------------

     Can  we  be    little children  a - gain?


****CHORUS****
C5                 D5                 E5'           E5'

-------0---0---0--
-------2---2---2--
-------0-----0----
---0---0---0---0--

-------1---1---1--
-----3-3---3---3--
-------0-----0----
---0---0---0---0--

-----0---0---0----
---2-----2---2----
-----0-----0-0----
-----0---0---0----

---2--------------
-0----------------
---2---------2----
------------------

-3----------------
------------------
------------------
------------------

------------------
------------------
-0----------------
------------------

       Through the  eyes         of    innocence,

C5                 B5                 E5           E5

-------0----------
-------2---2---0--
-------0----------
---0-------0------

-------1-----1----
-------0---0---0--
-------0-----0----
---0---0---0---0--

-----0-0---0---0--
-----2---2---2----
-----0-----0---0--
-----0-------0----

---2--------------
---1--------------
---2--------------
---------4--------

-3----------------
-2----------------
------------------
------------------

------------------
------------------
-0----------------
-0----------------

          it  can   be   as   it   was  then.

C5                 D5                 G5        D/F#     E5        D5

-------0---0---0--
-------2---2---0--
-----3-------3----
-----0-------0----

-------0---0---0--
-----3-3---3------
-------3-------3--
-------3-------3--

-----0---0---0----
---2-----2---2----
------------------
-----------2------

---2--------------
-0----------------
---0-------0------
---2-----0--------

-3----------------
------------------
------------------
------------------

------------------
------------------
-3-------2--------
-0----------------

        Childlike   love       is      Heaven   -     sent

C5                 D5                 E5

-------0---0---0--
-------2---2---2--
-------0-----0----
------------------

-------1---1---1--
-----3-3---3---3--
-------0-----3----
------------------

-----0---0---0----
---2-----2---2----
-----0-0---0-0----
------------------

---2--------------
-0----------------
---2---------2----
------------------

-3----------------
------------------
-------------2----
------------------

------------------
------------------
-0----------------
------------------

        Through the eyes        of     innocence.


****VERSE 2****
C5                 B5                 E5                 D5

------------------
------------------
---------0--------
---------0--------

------------------
------------------
-----------3------
-----------3------

------------------
------------------
-------0-----0----
-------0-----0----

------------------
------------------
-----4---------4--
-----4---------4--

------------------
------------------
---2--------------
---2--------------

------------------
------------------
-0----------------
-0----------------

                                   To - day  is  just to - morrow's    memo -

F5                 G5                 A5           A5

------------------
------------------
------------------
-----0---#5-------

---------0--------
---------0--------
-----1-------3----
------------------

-------0---0---0--
-------0---0---0--
-------0-------0--
-------0----------

-----2-------2----
-----4-------4----
---2-----2/4------
-4/5--------------

---3--------------
---2--------------
-0----------------
------------------

-1----------------
-3----------------
------------------
------------------

 ry,   broken       pictures,  faded   dreams.


C5                 D5                 B5                 C5

---------0--------
---------0--------
---------0--------
---------3--------

-------1---1---1--
-----3-----3------
-------3---3---3--
-------3---3------

-----0-------0----
---2---2-----2----
-----0-------0----
-----0-------0----

---2--------------
-0-------------0--
---0--------------
---2-----------2--

-3----------------
------------------
-2----------------
-3----------------

------------------
------------------
------------------
------------------

       Embracing thoughts that bring us pain,             desperate   eyes

C5                 D5                 E5'

------------------
------------------
---------7--------
---------7--------

---------5--------
---------5--------
-----8-----8---8--
-----8-----8---0--

-----5-----5---5--
-----7-----7------
-------9-----9----
-------9-----9----

---5---5-----5----
---7---7-----7----
---9--------------
---9--------------

-3----------------
-5-------------5--
-7----------------
-7----------------

------------------
------------------
------------------
------------------

 Seek   in          vain.


****CHORUS****
C5                 D5                 E5'           E5'

-------0---0---0--
-------2---2---2--
-------0-----0----
---0---0---0---0--

-------1---1---1--
-----3-3---3---3--
-------0-----0----
---0---0---0---0--

-----0---0---0----
---2-----2---2----
-----0-----0-0----
-----0---0---0----

---2--------------
-0----------------
---2---------2----
------------------

-3----------------
------------------
------------------
------------------

------------------
------------------
-0----------------
------------------

       Through the  eyes         of    innocence,

C5                 B5                 E5            E5

-------0----------
-------2---2---0--
-------0----------
---0-------0------

-------1-----1----
-------0---0---0--
-------0-----0----
---0---0---0---0--

-----0-0---0---0--
-----2---2---2----
-----0-----0---0--
-----0-------0----

---2--------------
---1--------------
---2--------------
---------4--------

-3----------------
-2----------------
------------------
------------------

------------------
------------------
-0----------------
-0----------------

          it  can   be   as   it   was  then.

C5                 D5                 G5        D/F#     E5        D5

-------0---0---0--
-------2---2---0--
-----3-------3----
-----0-------0----

-------0---0---0--
-----3-3---3------
-------3-------3--
-------3-------3--

-----0---0---0----
---2-----2---2----
------------------
-----------2------

---2--------------
-0----------------
---0-------0------
---2-----0--------

-3----------------
------------------
------------------
------------------

------------------
------------------
-3-------2--------
-0----------------

        Childlike   love       is      Heaven   -     sent

C5                 D5                 #####INSERT SOLO HERE######

-------0---0---0--
-------2---2---2--
-------0-----0----
------------------

-------1---1---1--
-----3-3---3---3--
-------0-----0----
------------------

-----0---0---0----
---2-----2---2----
-------0---0-0----
------------------

---2--------------
-0----------------
-----2-------2----
------------------

-3----------------
------------------
---3--------------
------------------

------------------
------------------
-1----------------
------------------

        Through the eyes        of     innocence.
                                      ^
                                      

 _____________________________________




****SOLO****
F5            F5                      F5         F5 1/2 1/2

------------------
------------------
------------------
------------------

-------------10---
------------------
------------12^12^
-------------12-10

------------------
------------------
------------------
------------------

------------------
------------------
------------------
------------------

------------------
------------------
------------------
------------------

------------------
------------------
------------------
------------------


F#5                D5                 E5                 F#5

------------------
------------------
-12--9------------
------------------

-------------9/10-
-10------9^9------
-------10---------
------------------

-11---------------
------------------
-----------9-7/9--
------------------

------------------
------------------
------------------
-11---------------

------------------
------------------
------------------
------------------

------------------
------------------
------------------
------------------


F#5                D5                 E5                 F#5

------------------
------------------
-12--9----9-12/17-
-15---------------

-------------9/10-
-10------9^9------
-------10---------
------------------

-11---------------
------------------
------------------
-----------/ 18---

------------------
------------------
------------------
------------------

------------------
------------------
------------------
------------------

------------------
------------------
------------------
------------------


D5                                    E5

-------------16-17-19-17-16----------
-------------16-17-19-17-19-21-------

-------17-19----------------19-17----
-------17-19-------------------------

-18-19----------------------------19-
-18-19-------------------------------

-------------------------------------
-------------------------------------

-------------------------------------
-------------------------------------

-------------------------------------
-------------------------------------


A5                E/G#                F#5                E5

-21---------------21-----------------
-21-19-17\16-------------19p17p16-19-

-------------------------------------
----------------17-------------------

-------------------------------------
-------------------18----------------

-------------------------------------
-------------------------------------

-------------------------------------
-------------------------------------

-------------------------------------
-------------------------------------


D5                           1/2  1/2 E5 1/2

-17-16-14---------------14-----------
-------------------------------------

----------17-15-14-------------------
-------------------------------------

-------------------16-------16^--16^-
-16^-p14--16--16---------------------

-------------------------------------
-------------------------------------

-------------------------------------
-------------------------------------

-------------------------------------
-------------------------------------


F#5

----------17 \/\/\/\/\/\/\/\/\/\/\/\/
\/\/\/\/\/\/\/\/\/\\\\\\\\\\\\\\\\---

--/ 19 \/\/\/\/\/\/\/\/\/\/\/\/\/\/\/
\/\/\/\/\/\/\/\/\/\\\\\\\\\\\\\\\\---

-------------------------------------
-------------------------------------

-------------------------------------
-------------------------------------

-------------------------------------
-------------------------------------

-------------------------------------
-------------------------------------



****CHORUS****

D5                E5                F#5         F#5
      Through the eyes      of      innocence

D5                C#5               F#5         F#5
      See  the    smile  of youth   again

D5                E5                A5       E/G#     F#5      E5
      Childlike  love     is        Hea -   ven    -  sent

D5                E5                F#5 (x 16)
      Through the eyes      of      innocence....

D5                E5                A5       E/G#     F#5...
      Childlike  love     is        Hea -   ven    -  sent ....



---------2--------
---------0--------
-------2-5-4-2----
-2----------------

-----3-----3------
-----------0------
-----2---------2--
-2----------------

---2---2-----2----
-------1-----1----
---2--------------
-2----------------

-0-------------0--
-----2---------2--
-4----------------
-4----------------

------------------
---2--------------
------------------
-4----------------

------------------
-0----------------
------------------
-2----------------

       Through the eyes     of         innocence.


CHRD  123456
====  ======
C5    x355xx
C#5   x466xx
D5    x577xx
D/F#  25xxxx
E5    022xxx
E5'   x799xx
E/G#  47xxxx
F5    133xxx
F#5   244xxx
G5    355xxx
A5    577xxx
B5    x244xx

NOTE:  I don't know if these are the actual chords being played by he who
plays yon electric guitar, but they're close enough, so GET OVER IT!!

ALSO NOTE:  I've never actually played the solo at the correct tempo.  In
fact, I don't even own an electric guitar, but this 'should' work.




~~~~~~~~~~~~~~~~~~~~~~~~~~~~~~~~~~~~~~~~~~~~~~~~~~~~~~~~~~~~~~~~~~~~~
---------0-------
----------0-------
------------------
-----------.--..
-----------3-----
------------3-----
----------0-------
----------0.--..
-------0-----0---
--------0-----0---
--------0---0---0-
--------0--.--..
-----4---------4-
------4---------4-
------2-------4---
------4----.--..
---2-------------
----2-------------

-0---------------
--0---------------
--1------------------------------..  C. MICHAEL PILATO
 Rememeber how we used to laugh and  play?

[from Holy Soldier's "Eyes of Innocence," transcribed by, well, me]
 


/
How To Set Up Higher Praise As Your Home Page
Copyright 1999, Higher Praise HigherPraise,Inc. All rights reserved. Terms of Use

Enjoy A Life Changing Experience

 
 
 
HigherPraise, Higher Praise, HigherPraise, Higher Praise, HigherPraise

Members..Sign Up. LogIn

 
 

Higher Praise Other Sites
 
 

HigherPraise.org/
Praise And Worship
www.higherpraise.org

HigherPraise.net
Christian Resources
www.higherpraise.net

HigherPraiseTube.com
Videos And Audios
www.higherpraisetube.com.


ChristianLyrics.org

Lyrics And Chrords
www.christianlyrics.org

ChristianChordsLyrics

Lyrics And Chrords
www.christianchordslyrics.com

ChristianChordLyrics

Lyrics And Chrords
www.christianchordlyrics.com

WorshipLyrics.org
10.000 Illustrations
www.worshiplyrics.org

WorshipLyrics.net
10.000 Illustrations
www.worshiplyrics.net

PraiseLyrics.com
PowerPoint Lyrics

www.praiselyrics.com

PraiseLyrics.org
PowerPoint Lyrics

www.praiselyrics.org

1GodTube.com
Chistian Videos

www1godtube..com

OneGodTube.com
Chistian Videos

www.onegodtube..com

 

/
Copyright 1999 - 2019, Higher Praise™ HigherPraise™,Inc. All rights reserved. Terms of Use