Higher Praise - Guitar Chords, Lyrics  GuitarTabs -  Praise nad Worship Music And Christian Songs

Higher Praise - Guitar Tabs, Guitar Chords, Lyrics
   Lyrics, Chords And Tabs
   Popular Lyrics Chords Tab
   Power Point Lyrics
   Praise & Worship Music
   Christian Music Videos
   15900 Videos & Audios
   Midi Files
   Worship Questions
   Christmas Chords, Lyrics
   Lyrics, Chords Tabs Rated

Sermon Outlines And Audio Sermons
   9344 Sermon Outlines
   N.T. Sermon Outlines
   O.T. Sermon Outlines
   Special Guest Outlines
   10.000 Illustrations
   Sunday School Studies
   Bible College Studies
   Greatest Preachers
   Bible Research Tools
Audio Sermons
   2895 Audio Sermons
   85 Sermon Videos
   291 Special Guests Serm

   Complete Audio Bible
Higher Praise Sunday School Teaching
   Children's NT Studies
   Children's OT Studies

   98 Children's Midis
   Gospel For Kids Movie
   Children's JESUS Film
Higher Praise Christian Video Library ,Videos
   Christian Television
   TBN TV Live
   15,000 Videos - HP Tube
   712 Youth Music Vids
  Christian Video Library
   Praise Videos #1 & #2
   85 Sermon Videos
   Prophecy Film -Videos
   JESUS Film -Video
   Childrens JESUS Film
   Gospel For Kids Movie
   Passion Of The Christ
   Noah, Sodom, Sinai, Ark
   Tsunami Videos Photos
News And Information
   Testimonies
   Submit Lyrics, Tabs, Serm
   10.000 Illustrations
   Bible College Course
   Clipart & Web Graphics
   Greatest Preachers
   Complete Talking Bible
   Christian Chat Rooms
   Links Church Resource
   HP Statement Of Faith
Download Clipart
   Audio Sermons
   Clipart & Web Graphics
   Church Administration
   Bible Study Software
   Screen Savers Software
   Verse A Day Software
   Educational Games
   Trade Center Photos

   Soft. Search Engine
Higher Praise News
   Current News
    Archived News
   Submit News
   Newsletter   Higher Praise Interact Prayer
   Prayer For All Needs
   
Submit Lyrics, Sermons
   
Contact Higher Praise
   
Advertising 
   Privacy Policy
//
He Died For You,  Click For Answer! This Is Who Jesus Is Video

'
 
0-9 A B C D E F G H I J K L M N O P Q R S T U V W X Y Z
.

//
Click For Printable...Version Of This File
 

Everyone I Know Has Fangs


by He Is Legend




"Everyone I Know Has Fangs"
He Is Legend
It Hates You

Tuning(Drop C): CGCFAD

Bass Intro/Verses:
3F
---------------------------------------------------------------

4C
---------------------------------------------------------------

5G
---------------------------------------------------------------

6C
0-0--0-3-6-6-6-3-5-5-5-5-----0-0--0-3-6-6-6-0--3-5-5-5--2^-----



Guitar Verses:
1D
---------------------------------------------------------------

2A
---------------------------------------------------------------

3F
--------------10-----------------------------------------------

4C
10----9-10-13----13-10--9--------------------------------------

5G
---------------------------------------------------------------

6C
---------------------------------------------------------------



"Riff" as a Fill:
1D
---------------------------------------------------------------

2A
---------------------------------------------------------------

3F
---------------------------------------------------------------

4C
0-7-6-0-0-7-6-0-0-7-6-0-3--------------------------------------

5G
---------------------------------------------------------------

6C
---------------------------------------------------------------



Chorus:
1D
---------------------------------------------------------------

2A
---------------------------------------------------------------

3F
---------------------------------5---5-5-5-5-7-----------------

4C
8---8-8-8-8-10---3---3-3-3-3-5---5---5-5-5-5-7---5---5-5-5-5-7-

5G
8---8-8-8-8-10---3---3-3-3-3-5---3---3-3-3-3-5---5---5-5-5-5-7-

6C
8---8-8-8-8-10---3---3-3-3-3-5-------------------5---5-5-5-5-7-


Chorus(w/ tail):
1D
------------------------------------------------------------------------------

2A
------------------------------------------------------------------------------

3F
------------------------------------------------------------------------------

4C
8---8-8-8-8-10---3---3-3-3-3-5---7--------------------------------------------

5G
8---8-8-8-8-10---3---3-3-3-3-5---7--------------------------------------------

6C
8---8-8-8-8-10---3---3-3-3-3-5---7---7-7-7-7-7-7-7-7--11-11-11-11-11-11-11-11-



Riff:
1D
----------------------------------------------------------------------

2A
----------------------------------------------------------------------

3F
----------------------------------------------------------------------

4C
0-------------------7-6-0-6-7-0----------------------7-6-0-6-7-0------

5G
0---0-0-0-0-0-0-0-0-7-6-0-6-7-0------0-0-0-0-0-0-0-0-7-6-0-6-7-0------

6C
0---0-0-0-0-0-0-0-0-7-6-0-6-7-0-9^---0-0-0-0-0-0-0-0-7-6-0-6-7-0-3^---


Riff Tail:
1D
-------------------------------------------------------

2A
-------------------------------------------------------

3F
-------------------------------------------------------

4C
-------------------------------------------------------

5G
-------------------------------------------------------

6C
0-0-0-0-0-0-0-0-7-6-0-6-7-0-3^--0-3-6--0-6-9--0-9-6----



Bridge Overdub:
1D
-------------------------------------------------

2A
-------------------------------------------------

3F
-------------------------------------------------

4C
12-12-12-12-12-12-12-12^-12-12-12-12-12-12-12-8--

5G
-------------------------------------------------

6C
-------------------------------------------------



Bridge(Bass):
3F
----------------------------------------------------------------

4C
----------------------------------------------------------------

5G
----------------------------------------------------------------

6C
0---0-0-0-0-0-0-0-0-0-0-0-0-0-0---5---5-5-5-5-5---3---3-3-3-3-3-



Bridge End:
1D
-------------------------------------------

2A
-------------------------------------------

3F
-------------------------------------------

4C
7-------7-------7-------7--------5----3----

5G
5-------5-------5-------5--------5----3----

6C
--0-0-0---0-0-0---0-0-0---0-0-0--5----3----



Breakdown:
1D
----------------------------------------------------------

2A
----------------------------------------------------------

3F
----------------------------------------------------------

4C
----------------------------------------------------------

5G
----------------------------------------------------------

6C
0-0-0-0-0-0-0-0-0-0-0-0-0-0-0-0-0-0-0-0-0-0-0-0-0-0-0-0-0-


Arrangement:
Bass Intro x2
Verse x4
Fill
Chorus x4 w/tail
Fill
Verse 2 x4
Fill
Riff w/ tail x2
Chorus x4 w/ tail
Bridge Overdub x7
Bridge Bass x6
Bridge End x2
Riff w/ tail
Breakdown x2

Lyrics:

(Verse 1)
Like a scene in science fiction
Where the creature will not die
I'll be using perfect diction
Even though I'm terrified

I can see you smell it through me
Can you find a place to hide
I think I might hear some one coming out of the corner of my eye

(Chorus)
I've been meaning to look into your eyes
I've seen 'em a half a million times
How have I not seen them like this? Strange...
I've been meaning look behind your smile
Seen it a half a million times
So how did I not notice you had fangs?

(Verse 2)
I just had the strangest vision
The apartment was on fire
You were standing in the kitchen
You were covered in cherry pie

Well you know I've seen what's behind your back
So you can't tell me it was just some snack
Uhhh... I think I'm gonna be sick

(Chorus)
I've been meaning to look into your eyes
I've seen 'em a half a million times
How have I not seen them like this? Strange...
I've been meaning look behind your smile
Seen it a half a million times
So how did I not notice you had fangs?

(Breakdown)
Now that I've boarded up my door
And I'm laying on the floor
Just trying to catch my breath
Will you just give minute?!

No I don't need no other friend
So I will not let you in
And if you don't go away
Then I'm jumping out the window.
 


/
How To Set Up Higher Praise As Your Home Page
Copyright 1999, Higher Praise HigherPraise,Inc. All rights reserved. Terms of Use

Enjoy A Life Changing Experience

 
 
 
HigherPraise, Higher Praise, HigherPraise, Higher Praise, HigherPraise

Members..Sign Up. LogIn

 
 

Higher Praise Other Sites
 
 

HigherPraise.org/
Praise And Worship
www.higherpraise.org

HigherPraise.net
Christian Resources
www.higherpraise.net

HigherPraiseTube.com
Videos And Audios
www.higherpraisetube.com.


ChristianLyrics.org

Lyrics And Chrords
www.christianlyrics.org

ChristianChordsLyrics

Lyrics And Chrords
www.christianchordslyrics.com

ChristianChordLyrics

Lyrics And Chrords
www.christianchordlyrics.com

WorshipLyrics.org
10.000 Illustrations
www.worshiplyrics.org

WorshipLyrics.net
10.000 Illustrations
www.worshiplyrics.net

PraiseLyrics.com
PowerPoint Lyrics

www.praiselyrics.com

PraiseLyrics.org
PowerPoint Lyrics

www.praiselyrics.org

1GodTube.com
Chistian Videos

www1godtube..com

OneGodTube.com
Chistian Videos

www.onegodtube..com

 

/
Copyright 1999 - 2019, Higher Praise™ HigherPraise™,Inc. All rights reserved. Terms of Use