Higher Praise - Guitar Chords, Lyrics  GuitarTabs -  Praise nad Worship Music And Christian Songs

Higher Praise - Guitar Tabs, Guitar Chords, Lyrics
   Lyrics, Chords And Tabs
   Popular Lyrics Chords Tab
   Power Point Lyrics
   Praise & Worship Music
   Christian Music Videos
   15900 Videos & Audios
   Midi Files
   Worship Questions
   Christmas Chords, Lyrics
   Lyrics, Chords Tabs Rated

Sermon Outlines And Audio Sermons
   9344 Sermon Outlines
   N.T. Sermon Outlines
   O.T. Sermon Outlines
   Special Guest Outlines
   10.000 Illustrations
   Sunday School Studies
   Bible College Studies
   Greatest Preachers
   Bible Research Tools
Audio Sermons
   2895 Audio Sermons
   85 Sermon Videos
   291 Special Guests Serm

   Complete Audio Bible
Higher Praise Sunday School Teaching
   Children's NT Studies
   Children's OT Studies

   98 Children's Midis
   Gospel For Kids Movie
   Children's JESUS Film
Higher Praise Christian Video Library ,Videos
   Christian Television
   TBN TV Live
   15,000 Videos - HP Tube
   712 Youth Music Vids
  Christian Video Library
   Praise Videos #1 & #2
   85 Sermon Videos
   Prophecy Film -Videos
   JESUS Film -Video
   Childrens JESUS Film
   Gospel For Kids Movie
   Passion Of The Christ
   Noah, Sodom, Sinai, Ark
   Tsunami Videos Photos
News And Information
   Testimonies
   Submit Lyrics, Tabs, Serm
   10.000 Illustrations
   Bible College Course
   Clipart & Web Graphics
   Greatest Preachers
   Complete Talking Bible
   Christian Chat Rooms
   Links Church Resource
   HP Statement Of Faith
Download Clipart
   Audio Sermons
   Clipart & Web Graphics
   Church Administration
   Bible Study Software
   Screen Savers Software
   Verse A Day Software
   Educational Games
   Trade Center Photos

   Soft. Search Engine
Higher Praise News
   Current News
    Archived News
   Submit News
   Newsletter   Higher Praise Interact Prayer
   Prayer For All Needs
   
Submit Lyrics, Sermons
   
Contact Higher Praise
   
Advertising 
   Privacy Policy
//
He Died For You,  Click For Answer! This Is Who Jesus Is Video

'
 
0-9 A B C D E F G H I J K L M N O P Q R S T U V W X Y Z
.

//
Click For Printable...Version Of This File
 

How Did You Know


by Gary Valenciano




				*******HOW DID YOU KNOW******** 

	*** Ito nga pala ung accostic ng "how did you know" i make this tab with
my own version
sana mag-enjoy na lang kayo kung away nyo naman ok lang kahit di nyo magustuhan
pero kung meron kayong ibang  comments and corrections email nyo n lang

again enjoy na
lng kayo ha ******
	*** Kamusta na lang sa lahat ng friends ko sa lahat ng bata sa lahat
ng AlphaBe....... and lalo na kay RO.EM.BAG. sana mag kausap n tayo and sa
lahat
sagutin nyo na ang lahat ng nanliligay sa inyo kawawa na e kawawang-kawawa na
talaga - ARAY ANG SAKIT OUCH (JOKE LANG)***
	*** Tnx sa lahat ng tumulong sakin ******
	*** Cooming soon LAHAT NG SIKAT *******
	*** EXECUTEREB*******
-R.E.B.

intro :

E--3--------3------------2----------1-------------0---
----0--------

B--3---------3---------3---3----------0---------------
----1--------

G--4----------0------------------------0-------0------
----0--------
[2x]
D--5-----0----------4------------0------0-----2-------
----2--------

A------2----------5------------2-------------3--------
----3--------

E-----3-----------------------3-----------------------
-------------



V1 & V2 :

E--3--------3------------2----------1-------------0------0----------------3-------------

B--3---------3---------3---3----------0---------------------3--------------3------------

G--4----------0------------------------0-------0-------5----------------0---0-----------

D--5-----0----------4------------0------0-----2----------------5------0-----------------

A------2----------5------------2-------------3-------3--------------2-------------------

E-----3-----------------------3-----------------------------------3---------------------


 I rem....................   tha day...............  you ask.......................

E----------0------------2h3-----

B-------------1-------3-----3---

G--------------0----2-----------
[2x]
D---------------2---------------

A--------2----------------------

E-------------------------------


  you had..................

Chorus :

E-----3----------0------0-------------2--------3-------0------------1---------2-----

B------3----------0------2-----------3-3--------3--------0-----------1----------3---

G-------0-----------------0---------2---2--------5--------------------1------2------

D--------------2-----2---------0--0------------------2---------------------0--------

A--2-------0--2-----0------------------------5------3-------------3-----------------

E-3-----------------------------------------3----------------0--1-------------------


 how d... i need............  theres ..... in my.. you ca.. in my lif ...........  


E-----3----------0------0--------2----2-----3-
-----0------0---0-----0-------0----0---

B------3----------0------2--------------------
------0----------------0-------0----0--

G-------0-----------------0-------------------
------------------------0--------------

D--------------2-----2--------------4-----2---
---2------0---------2-------------2----

A--2-------0--2-----0---------4----2-----2----
--0-----------2----0--------3----2-----

E-3--------------------------2----------------
---------------------------1-----------


           i never fo.......  .... i had       i gue.......  ..............my way


E-------0-------2-----

B--------1-------3----

G-------------2-------

D----2-------0--------

A--0------------------

E---------------------


 no words.......ove you


E--------0------------0--------6-----

B---------0------------0--------6----

G----------------------------8-------

D----(0)---------(4)--------8--------

A---2----------5-----------6---------

E--3---------3-----------------------



(REPEAT CHORUS MOVING 1 FRET HIGHER)

(Lyrics)

How did you know

VERSE 1:
I remember so well
The day that you came into my life
You ask for my name
You had the most beautiful smile

VERSE 2:
My life started to change
I wake up each day
Feeling alright
With you right by side
Makes me feel things 
Will work out just fine

CHORUS:
How did you know
I needed someone like you in my life
That there's an empty space in my heart
You came at the right time in my life
I'll never forget 
How you brought the sun to shine in my life 
And took all the worries and fears that I had 
I guess what I'm really trying to say
It's not everyday that someone like you comes my way
No words can express how much I love you


I've seen a lot of tabs of this beautiful song, but none of them were accurate enough

to play, so i made it by myself. It sounds very good, just listen to the song and 

take out the rythem ! If you have any problem with fingering, just email me . 
											

 


/
How To Set Up Higher Praise As Your Home Page
Copyright 1999, Higher Praise HigherPraise,Inc. All rights reserved. Terms of Use

Enjoy A Life Changing Experience

 
 
 
HigherPraise, Higher Praise, HigherPraise, Higher Praise, HigherPraise

Members..Sign Up. LogIn

 
 

Higher Praise Other Sites
 
 

HigherPraise.org/
Praise And Worship
www.higherpraise.org

HigherPraise.net
Christian Resources
www.higherpraise.net

HigherPraiseTube.com
Videos And Audios
www.higherpraisetube.com.


ChristianLyrics.org

Lyrics And Chrords
www.christianlyrics.org

ChristianChordsLyrics

Lyrics And Chrords
www.christianchordslyrics.com

ChristianChordLyrics

Lyrics And Chrords
www.christianchordlyrics.com

WorshipLyrics.org
10.000 Illustrations
www.worshiplyrics.org

WorshipLyrics.net
10.000 Illustrations
www.worshiplyrics.net

PraiseLyrics.com
PowerPoint Lyrics

www.praiselyrics.com

PraiseLyrics.org
PowerPoint Lyrics

www.praiselyrics.org

1GodTube.com
Chistian Videos

www1godtube..com

OneGodTube.com
Chistian Videos

www.onegodtube..com

 

/
Copyright 1999 - 2019, Higher Praise™ HigherPraise™,Inc. All rights reserved. Terms of Use