Higher Praise - Guitar Chords, Lyrics  GuitarTabs -  Praise nad Worship Music And Christian Songs

Higher Praise - Guitar Tabs, Guitar Chords, Lyrics
   Lyrics, Chords And Tabs
   Popular Lyrics Chords Tab
   Power Point Lyrics
   Praise & Worship Music
   Christian Music Videos
   15900 Videos & Audios
   Midi Files
   Worship Questions
   Christmas Chords, Lyrics
   Lyrics, Chords Tabs Rated

Sermon Outlines And Audio Sermons
   9344 Sermon Outlines
   N.T. Sermon Outlines
   O.T. Sermon Outlines
   Special Guest Outlines
   10.000 Illustrations
   Sunday School Studies
   Bible College Studies
   Greatest Preachers
   Bible Research Tools
Audio Sermons
   2895 Audio Sermons
   85 Sermon Videos
   291 Special Guests Serm

   Complete Audio Bible
Higher Praise Sunday School Teaching
   Children's NT Studies
   Children's OT Studies

   98 Children's Midis
   Gospel For Kids Movie
   Children's JESUS Film
Higher Praise Christian Video Library ,Videos
   Christian Television
   TBN TV Live
   15,000 Videos - HP Tube
   712 Youth Music Vids
  Christian Video Library
   Praise Videos #1 & #2
   85 Sermon Videos
   Prophecy Film -Videos
   JESUS Film -Video
   Childrens JESUS Film
   Gospel For Kids Movie
   Passion Of The Christ
   Noah, Sodom, Sinai, Ark
   Tsunami Videos Photos
News And Information
   Testimonies
   Submit Lyrics, Tabs, Serm
   10.000 Illustrations
   Bible College Course
   Clipart & Web Graphics
   Greatest Preachers
   Complete Talking Bible
   Christian Chat Rooms
   Links Church Resource
   HP Statement Of Faith
Download Clipart
   Audio Sermons
   Clipart & Web Graphics
   Church Administration
   Bible Study Software
   Screen Savers Software
   Verse A Day Software
   Educational Games
   Trade Center Photos

   Soft. Search Engine
Higher Praise News
   Current News
    Archived News
   Submit News
   Newsletter   Higher Praise Interact Prayer
   Prayer For All Needs
   
Submit Lyrics, Sermons
   
Contact Higher Praise
   
Advertising 
   Privacy Policy
//
He Died For You,  Click For Answer! This Is Who Jesus Is Video

'
 
0-9 A B C D E F G H I J K L M N O P Q R S T U V W X Y Z
.

//
Click For Printable...Version Of This File
 

Bring Me To Life


by Evanescence




Song:      "Bring Me To Life"
Artist:    Evanescence
Album:     Fallen


Guitarist/Bassist of:



				 
Any comments, questions, jokes, threats, suggestions,
corrections, thoughts or concerns...

___________________________________________________________________________
Standard Tuning
Guitar fades in...
	  1       2       3       4    
	E
-----------------------------

	B
-----------------------------

	G
-----------------------------

	D
---2<------------------------

	A
---2<------------------------

	E
---0<------------------------

 I've become so numb.
___________________________________________________________________________
 [Intro] 
  1       2       3       4       1       2       3       4
E
-----------------------------
--------------------------------

B
-----------------------------
--------------------------------

G
-----------------------------
--------------------------------

D
2-2---2-2---2-2---2-2--------
------2-2---2-2---2-2---2-2-----

A
2-2---2-2---2-2---2-2--------
------2-2---2-2---2-2---2-2----3

E
0-0---0-0---0-0---0-0--------
------0-0---0-0---0-0---0-0--0--


  1       2       3       4       1       2       3       4
E
-----------------------------
--------------------------------
Repeat 
B
-----------------------------
--------------------------------
 2x's
G
-----------------------------
--------------------------------

D
2-2---2-2---2-2---2-2--------
------2-2---2-2---2-2-----2-----

A
2-2---2-2---2-2---2-2--------
------2-2---2-2---2-2-----2----3

E
0-0---0-0---0-0---0-0--------
------0-0---0-0---0-0-----0--0--

___________________________________________________________________________

 Chorus I
 E5             G5             D5             E5
E
--------------
--------------
--------------
--------------

B
--------------
--------------
--------------
----5---------

G
--------------
--------------
7-------------
----4---------

D
2-------------
5-------------
7-------------
----2---------

A
2-------------
5-------------
5-------------
2-------2-----

E
0-------------
3-------------
5-------------
0-------0-----

  Wake me up!  I Can't wake up! Save me! 

  E5             G5             D5             E5
E
--------------
--------------
--------------
--------------

B
--------------
--------------
--------------
--------------

G
--------------
--------------
7-------------
--------------

D
2-------------
5-------------
7-------------
2-------------

A
2-------------
5-------------
5-------------
2-------------

E
0-------------
3-------------
5-------------
0-------------

  Wake me up!  I Can't wake up! Save me! 
___________________________________________________________________________

  Break Riff
E
-----------------------------

B
-----------------------------

G
-----------------------------

D
2-2---2-2---2-2---2-2--------

A
2-2---2-2---2-2---2-2------*3
 *Slight pinch
E
0-0---0-0---0-0---0-0---0-0--

___________________________________________________________________________

 Verse II
  1       2       3       4       1       2       3       4
E
-----------------------------
--------------------------------
 
B
-----------------------------
--------------------------------

G
-----------------------------
--------------------------------

D
2-2---2-2---2-2---2-2---22---
------2-2---2-2---2-2---2-------

A
2-2---2-2---2-2---2-2---22-22
------2-2---2-2---2-2---2------3

E
0-0---0-0---0-0---0-0---00-00
------0-0---0-0---0-0---0--0-0--



  1       2       3       4       1       2       3       4
E
-----------------------------
--------------------------------
Repeat
B
-----------------------------
--------------------------------
 2x's
G
-----------------------------
--------------------------------

D
3-3---3-3---3-3---3-3---33---
------2-2---2-2---2-2---2-------

A
2-2---2-2---2-2---2-2---22-22
------2-2---2-2---2-2---2------3

E
0-0---0-0---0-0---0-0---00-00
------0-0---0-0---0-0---0--0-0--

___________________________________________________________________________

 Chorus II (same as first chorus)

 Bridge:

  C5             D5            
E
--------------
--------------

B
--------------
--------------

G
5-------------
7-------------

D
5-------x-x-*x
7-------x-x-*x

A
3-------x-x--x
5-------x-x--x

E
3-------x-x--x
5-------x-x--x

   come.   Bring me    to       
 
  E5
E
-----------------------------
--------------------------------
Repeat
B
-----------------------------
--------------------------------
 2x's
G
-----------------------------
--------------------------------

D
2-2---2-2---2-2---2-2---22---
------2-2---2-2---2-2---2-------

A
2-2---2-2---2-2---2-2---22-22
------2-2---2-2---2-2---2------3

E
0-0---0-0---0-0---0-0---00-00
------0-0---0-0---0-0---0--0-0--

..life
           
  C5             D5             E5                           (N.C.)
E
--------------
--------------
-----------------------------
-----------

B
--------------
--------------
-----------------------------
-----------

G
5-------------
7-------------
-----------------------------
-----------

D
5-------x-x--x
7-------x-x--x
2-2---2-2---2-2---2-2---2----
-----------

A
3-------x-x--x
5-------x-x--x
2-2---2-2---2-2---2-2---2--22
----------2

E
3-------x-x--x
5-------x-x--x
0-0---0-0---0-0---0-0---0--00
0--2--3----

 come.     Bring me    to       life...
___________________________________________________________________________



Bridge / Interlude:
 *The guitar is inaudible here

  Am            G             F#           (N.C.)
E
-------------
-------------
-------------
--------------

B
-------5-----
-------7-----
-------------
--------------

G
-----5---5---
-----7---7---
11-----------
--------------

D
---7-------7-
---9-------9-
11-----------
--------------

A
0------------
0------------
9------------
------------2-

E
-------------
-------------
-------------
0---2---3--(7)

    Frozen inside without your touch without your love darling

   Am            G             F#           (N.C.)
E
-------------
-------------
-------------
--------------

B
-------5-----
-------7-----
-------------
--------------

G
-----5---5---
-----7---7---
11-----------
--------------

D
---7-------7-
---9-------9-
11-----------
--------------

A
0------------
0------------
9------------
--------------

E
-------------
-------------
-------------
--------------


___________________________________________________________________________

  (Same idea as the intro)
  1       2       3       4       1       2       3       4
E
-----------------------------
--------------------------------
 
B
-----------------------------
--------------------------------

G
-----------------------------
--------------------------------

D
2-2---2-2---2-2---2-2----22--
------2-2---2-2---2-2---2-------

A
2-2---2-2---2-2---2-2----22-2
------2-2---2-2---2-2---2------3

E
0-0---0-0---0-0---0-0----00-0
------0-0---0-0---0-0---0----0--

  all this time i can't believe i couldn't see

  1       2       3       4       1       2       3       4
E
-----------------------------
--------------------------------
 Play 
B
-----------------------------
--------------------------------
 2x's
G
-----------------------------
--------------------------------

D
3-3---3-3---3-3---3-3----33--
------2-2---2-2---2-2---2-------

A
2-2---2-2---2-2---2-2----22-2
------2-2---2-2---2-2---2------3

E
0-0---0-0---0-0---0-0----00-0
------0-0---0-0---0-0---0----0--


___________________________________________________________________________

Chorus III
  E5             G5             D5             
E
--------------
--------------
--------------
--------------

B
--------------
--------------
--------------
--------------

G
--------------
--------------
7-------------
----------x\--

D
2-------------
5-------------
7-------------
----------x\--

A
2-------------
5-------------
5-------------
----------x\--

E
0-------------
3-------------
5-------------
----------x\--

  Wake me up!  I Can't wake up! Save me! 

  E5             G5             D5             E5
E
--------------
--------------
--------------
--------------

B
--------------
--------------
--------------
--------------

G
--------------
--------------
7-------------
--------------

D
2-------------
5-------------
7-------------
2-------------

A
2-------------
5-------------
5-------------
2-------------

E
0-------------
3-------------
5-------------
0-------------

  Wake me up!  I Can't wake up! Save me! 
___________________________________________________________________________

  C5             D5             E5                            N.C.
E
--------------
--------------
-----------------------------
------------

B
--------------
--------------
-----------------------------
------------

G
5-------------
7-------------
-----------------------------
------------

D
5-------------
7-------------
2-2---2-2---2-2---2-2---2----
------------

A
3-------------
5-------------
2-2---2-2---2-2---2-2---2--22
----------2-

E
3-------------
5-------------
0-0---0-0---0-0---0-0---0--00
0--2--3-----

                                             I've been livin' a lie...

  C5             D5             E5       Begin fade...        N.C.  
E
--------------
--------------
-----------------------------
------------

B
--------------
--------------
-----------------------------
------------

G
5-------------
7-------------
-----------------------------
------------

D
5-------------
7-------------
2----------------------------
>-----------

A
3-------------
5-------------
2----------------------------
>-----------

E
3-------------
5-------------
0----------------------------
>-----------

        Bring    me     to      life!
___________________________________________________________________________


bring me to life

how can you see into my eyes like open doors
leading you down into my core
where i've become so numb without a soul my spirit sleeping somewhere cold 
until you find it there and lead it back home wake me up inside
wake me up inside
call my name and save me from the dark
bid my blood to run
before i come undone
save me from the nothing i've become

now that i know what i'm without
you can't just leave me
breathe into me and make me real
bring me to life

wake me up inside
wake me up inside
call my name and save me from the dark
bid my blood to run
before i come undone
save me from the nothing i've become
bring me to life

frozen inside without your touch without your love darling only you are the life among the dead

all this time i can't believe i couldn't see
kept in the dark but you were there in front of me
i've been sleeping a thousand years it seems
got to open my eyes to everything
without a thought without a voice without a soul
don't let me die here
there must be something more
bring me to life
 


/
How To Set Up Higher Praise As Your Home Page
Copyright 1999, Higher Praise HigherPraise,Inc. All rights reserved. Terms of Use

Enjoy A Life Changing Experience

 
 
 
HigherPraise, Higher Praise, HigherPraise, Higher Praise, HigherPraise

Members..Sign Up. LogIn

 
 

Higher Praise Other Sites
 
 

HigherPraise.org/
Praise And Worship
www.higherpraise.org

HigherPraise.net
Christian Resources
www.higherpraise.net

HigherPraiseTube.com
Videos And Audios
www.higherpraisetube.com.


ChristianLyrics.org

Lyrics And Chrords
www.christianlyrics.org

ChristianChordsLyrics

Lyrics And Chrords
www.christianchordslyrics.com

ChristianChordLyrics

Lyrics And Chrords
www.christianchordlyrics.com

WorshipLyrics.org
10.000 Illustrations
www.worshiplyrics.org

WorshipLyrics.net
10.000 Illustrations
www.worshiplyrics.net

PraiseLyrics.com
PowerPoint Lyrics

www.praiselyrics.com

PraiseLyrics.org
PowerPoint Lyrics

www.praiselyrics.org

1GodTube.com
Chistian Videos

www1godtube..com

OneGodTube.com
Chistian Videos

www.onegodtube..com

 

/
Copyright 1999 - 2019, Higher Praise™ HigherPraise™,Inc. All rights reserved. Terms of Use