Higher Praise - Guitar Chords, Lyrics  GuitarTabs -  Praise nad Worship Music And Christian Songs

Higher Praise - Guitar Tabs, Guitar Chords, Lyrics
   Lyrics, Chords And Tabs
   Popular Lyrics Chords Tab
   Power Point Lyrics
   Praise & Worship Music
   Christian Music Videos
   15900 Videos & Audios
   Midi Files
   Worship Questions
   Christmas Chords, Lyrics
   Lyrics, Chords Tabs Rated

Sermon Outlines And Audio Sermons
   9344 Sermon Outlines
   N.T. Sermon Outlines
   O.T. Sermon Outlines
   Special Guest Outlines
   10.000 Illustrations
   Sunday School Studies
   Bible College Studies
   Greatest Preachers
   Bible Research Tools
Audio Sermons
   2895 Audio Sermons
   85 Sermon Videos
   291 Special Guests Serm

   Complete Audio Bible
Higher Praise Sunday School Teaching
   Children's NT Studies
   Children's OT Studies

   98 Children's Midis
   Gospel For Kids Movie
   Children's JESUS Film
Higher Praise Christian Video Library ,Videos
   Christian Television
   TBN TV Live
   15,000 Videos - HP Tube
   712 Youth Music Vids
  Christian Video Library
   Praise Videos #1 & #2
   85 Sermon Videos
   Prophecy Film -Videos
   JESUS Film -Video
   Childrens JESUS Film
   Gospel For Kids Movie
   Passion Of The Christ
   Noah, Sodom, Sinai, Ark
   Tsunami Videos Photos
News And Information
   Testimonies
   Submit Lyrics, Tabs, Serm
   10.000 Illustrations
   Bible College Course
   Clipart & Web Graphics
   Greatest Preachers
   Complete Talking Bible
   Christian Chat Rooms
   Links Church Resource
   HP Statement Of Faith
Download Clipart
   Audio Sermons
   Clipart & Web Graphics
   Church Administration
   Bible Study Software
   Screen Savers Software
   Verse A Day Software
   Educational Games
   Trade Center Photos

   Soft. Search Engine
Higher Praise News
   Current News
    Archived News
   Submit News
   Newsletter   Higher Praise Interact Prayer
   Prayer For All Needs
   
Submit Lyrics, Sermons
   
Contact Higher Praise
   
Advertising 
   Privacy Policy
//
He Died For You,  Click For Answer! This Is Who Jesus Is Video

'
 
0-9 A B C D E F G H I J K L M N O P Q R S T U V W X Y Z
.

//
Click For Printable...Version Of This File
 

All That Im Living For


by Evanescence




                          Evanescence - All That Im Living For                             
                                                                 
Tuning : Dropped B

CHORUS         
C#
----------------------
-------------------------
----------------------

G#
----------------------
-------------------------
----------------------

E 
----------------------
-------------------------
----------------------

B 
--4--4-------------0--
--0-------0--4--0-----4--
--4-------------0--0--

F#
--4--4-------------0--
--0-------0--4--0-----4--
--4-------------0--0--

B 
--4--4-------------0--
--0-------0--4--0-----4--
--4-------------0--0--

    
--------------------------
----------------------
--------------------------

--------------------------
----------------------
--------------------------

--------------------------
----------------------
--------------------------

--L-----0--4--0-----4--4--
--L-------------0--0--
--L-----0--4--0-----4--4--

--L-----0--4--0-----4--4--
--L-------------0--0--
--L-----0--4--0-----4--4--

--L-----0--4--0-----4--4--
--L-------------0--0--
--L-----0--4--0-----4--4--

                                                  PAUSE
----------------------
--------------------------
-----------

----------------------
--------------------------
-----------

----------------------
--------------------------
-----------

--L-----------0--0----
-----(0)--(0)-------------
-----------

--L-----------0--0----
-----(0)--(0)-------------
-----------

--L-----------0--0----
-----(0)--(0)-------------
-----------

VERSES (I. + II.) (Dmi on this tuning)
---9-----9---9---9-----9---9--
---L---9---9---9---9-----9----

--10----10--10--10----10--10--
---L--10--10--10--10----10----

--11----11--11--11----11--11--
---L--11--11--11--11----11----

--11----11--11--11----11--11--
---L--11--11--11--11----11----

---9-----9---9---9-----9---9--
---L---9---9---9---9-----9----

------------------------------
------------------------------

    
---9-----9---9---9-----9---9--
---L---9---9---9---9-----9----

--10----10--10--10----10--10--
---L--10--10--10--10----10----

--11----11--11--11----11--11--
---L--11--11--11--11----11----

--11----11--11--11----11--11--
---L--11--11--11--11----11----

---9-----9---9---9-----9---9--
---L---9---9---9---9-----9----

------------------------------
------------------------------

 (H on this tuning) 
--5----5--5--5----5--5--
--L--5--5--5--5----5----
--5----5--5--5----5--5--

--7----7--7--7----7--7--
--L--7--7--7--7----7----
--7----7--7--7----7--7--

--7----7--7--7----7--7--
--L--7--7--7--7----7----
--7----7--7--7----7--7--

--7----7--7--7----7--7--
--L--7--7--7--7----7----
--7----7--7--7----7--7--

--5----5--5--5----5--5--
--L--5--5--5--5----5----
--5----5--5--5----5--5--

------------------------
------------------------
------------------------

                           (Dmi on this tuning)
--L--5--5--5--5----5----
---9-----9---9---9-----9---9--

--L--7--7--7--7----7----
--10----10--10--10----10--10--

--L--7--7--7--7----7----
--11----11--11--11----11--11--

--L--7--7--7--7----7----
--11----11--11--11----11--11--

--L--5--5--5--5----5----
---9-----9---9---9-----9---9--

------------------------
------------------------------


---L---9---9---9---9-----9----
---9-----9---9---9-----9---9--

---L--10--10--10--10----10----
--10----10--10--10----10--10--

---L--11--11--11--11----11----
--11----11--11--11----11--11--

---L--11--11--11--11----11----
--11----11--11--11----11--11--

---L---9---9---9---9-----9----
---9-----9---9---9-----9---9--

------------------------------
------------------------------

                               (H on this tuning)
---L---9---9---9---9-----9----
--5----5--5--5----5--5--

---L--10--10--10--10----10----
--7----7--7--7----7--7--

---L--11--11--11--11----11----
--7----7--7--7----7--7--

---L--11--11--11--11----11----
--7----7--7--7----7--7--

---L---9---9---9---9-----9----
--5----5--5--5----5--5--

------------------------------
------------------------

                         (A# on this tuning)
--L--5--5--5--5----5----
--4----4--4--4----4--4--
--L--4--4--4--4----4----

--L--7--7--7--7----7----
--6----6--6--6----6--6--
--L--6--6--6--6----6----

--L--7--7--7--7----7----
--6----6--6--6----6--6--
--L--6--6--6--6----6----

--L--7--7--7--7----7----
--6----6--6--6----6--6--
--L--6--6--6--6----6----

--L--5--5--5--5----5----
--4----4--4--4----4--4--
--L--4--4--4--4----4----

------------------------
------------------------
------------------------


CHORUS FILL  
--------------------------
--------------------------

--7--7--7-----------------
--------------------------

-----------6--6--6--------
--------------------------

--------------------7--7--
--7--7--7--7--7--7--7--7--

--------------------------
--------------------------

--------------------------
--------------------------

                                                               
--------------------------
--------------------------

--7--7--7-----------------
--------------------------

-----------6--6--6--------
--------------------------

--------------------7--7--
--7-----------------------

--------------------------
-----5--5--5--5--5--5--5--

--------------------------
--------------------------


BRIDGE (This chord aint played by a gtr, piano plays it)   
-------------------
-------------------
----------------------------

-------------------
-------------------
----------------------------

-------------------
-------------------
*--------------------------*

--4----------------
--L----------------
*--0--0--0--0--0--0--0--0--*

--4----------------
--L----------------
---0--0--0--0--0--0--0--0---

--4----------------
--L----------------
---0--0--0--0--0--0--0--0---


----------------------------
------------------------------------

----------------------------
------------------------------------

*--------------------------*
*----------------------------------*

*--7--7--7--7--7--7--7--7--*
*--11--11--11--11--11--11--11--11--*

---7--7--7--7--7--7--7--7---
---11--11--11--11--11--11--11--11---

---7--7--7--7--7--7--7--7---
---11--11--11--11--11--11--11--11---

   
----------------------------
----------------------------

----------------------------
----------------------------

*--------------------------*
*--------------------------*

*--4--4--4--4--4--4--4--4--*
*--3--3--3--3--3--3--3--3--*

---4--4--4--4--4--4--4--4---
---3--3--3--3--3--3--3--3---

---4--4--4--4--4--4--4--4---
---3--3--3--3--3--3--3--3---

   
----------------------------
------------------------------------

----------------------------
------------------------------------

*--------------------------*
*----------------------------------*

*--7--7--7--7--7--7--7--7--*
*--11--11--11--11--11--11--11--11--*

---7--7--7--7--7--7--7--7---
---11--11--11--11--11--11--11--11---

---7--7--7--7--7--7--7--7---
---11--11--11--11--11--11--11--11---

 
--------------------------
--------------------------

--------------------------
--------------------------

--------------------------
--------------------------

--4--4--4--4--4--4--4--4--
--2--2--2--2--2--2--2--2--

--4--4--4--4--4--4--4--4--
--2--2--2--2--2--2--2--2--

--4--4--4--4--4--4--4--4--
--2--2--2--2--2--2--2--2--

   

----------------------------
----------------------------


----------------------------
----------------------------


*--------------------------*
*--------------------------*


*--0--0--0--0--0--0--0--0--*
*--9--9--9--9--9--9--9--9--*


---0--0--0--0--0--0--0--0---
---9--9--9--9--9--9--9--9---


---0--0--0--0--0--0--0--0---
---9--9--9--9--9--9--9--9---


CHORUS(then + ch.fill) OUTRO                                    
-------------------
--------------------
--------------------

-------------------
--------------------
--------------------

-------------------
*-------------------
-------------------*

-------------------
*--4----------------
--0----------------*

-------------------
---4----------------
--0-----------------

-------------------
---4----------------
--0-----------------
  (x4)


Last 2 hits  
----------------------

----------------------

----------------------

--4--4----------------

--4--4----------------

--4--4----------------


ORDER:
CHORUS
-pause-
VERSE I.
CHORUS
CHORUS with CHORUS FILL
-pause-
VERSE II.
CHORUS
CHORUS with CHORUS FILL
BRIDGE
CHORUS
CHORUS with CHORUS FILL
OUTRO
-last 2 hits-

Legend
----------------
L - tied note
(n) - ghost note

I hope yall think this is right, cuz Im hell of that sure=)Maybe I aint sure
about the second part of the Chorus Fill, but all the other parts are like that.
Plus Ive made a standard tuning version, just post a comment for me to submit it
and Ill do it.
Enjoy this tab yall!

(Im workin on Your Star Gtr pro =)) 
 


/
How To Set Up Higher Praise As Your Home Page
Copyright 1999, Higher Praise HigherPraise,Inc. All rights reserved. Terms of Use

Enjoy A Life Changing Experience

 
 
 
HigherPraise, Higher Praise, HigherPraise, Higher Praise, HigherPraise

Members..Sign Up. LogIn

 
 

Higher Praise Other Sites
 
 

HigherPraise.org/
Praise And Worship
www.higherpraise.org

HigherPraise.net
Christian Resources
www.higherpraise.net

HigherPraiseTube.com
Videos And Audios
www.higherpraisetube.com.


ChristianLyrics.org

Lyrics And Chrords
www.christianlyrics.org

ChristianChordsLyrics

Lyrics And Chrords
www.christianchordslyrics.com

ChristianChordLyrics

Lyrics And Chrords
www.christianchordlyrics.com

WorshipLyrics.org
10.000 Illustrations
www.worshiplyrics.org

WorshipLyrics.net
10.000 Illustrations
www.worshiplyrics.net

PraiseLyrics.com
PowerPoint Lyrics

www.praiselyrics.com

PraiseLyrics.org
PowerPoint Lyrics

www.praiselyrics.org

1GodTube.com
Chistian Videos

www1godtube..com

OneGodTube.com
Chistian Videos

www.onegodtube..com

 

/
Copyright 1999 - 2019, Higher Praise™ HigherPraise™,Inc. All rights reserved. Terms of Use