Higher Praise - Guitar Chords, Lyrics  GuitarTabs -  Praise nad Worship Music And Christian Songs

Higher Praise - Guitar Tabs, Guitar Chords, Lyrics
   Lyrics, Chords And Tabs
   Popular Lyrics Chords Tab
   Power Point Lyrics
   Praise & Worship Music
   Christian Music Videos
   15900 Videos & Audios
   Midi Files
   Worship Questions
   Christmas Chords, Lyrics
   Lyrics, Chords Tabs Rated

Sermon Outlines And Audio Sermons
   9344 Sermon Outlines
   N.T. Sermon Outlines
   O.T. Sermon Outlines
   Special Guest Outlines
   10.000 Illustrations
   Sunday School Studies
   Bible College Studies
   Greatest Preachers
   Bible Research Tools
Audio Sermons
   2895 Audio Sermons
   85 Sermon Videos
   291 Special Guests Serm

   Complete Audio Bible
Higher Praise Sunday School Teaching
   Children's NT Studies
   Children's OT Studies

   98 Children's Midis
   Gospel For Kids Movie
   Children's JESUS Film
Higher Praise Christian Video Library ,Videos
   Christian Television
   TBN TV Live
   15,000 Videos - HP Tube
   712 Youth Music Vids
  Christian Video Library
   Praise Videos #1 & #2
   85 Sermon Videos
   Prophecy Film -Videos
   JESUS Film -Video
   Childrens JESUS Film
   Gospel For Kids Movie
   Passion Of The Christ
   Noah, Sodom, Sinai, Ark
   Tsunami Videos Photos
News And Information
   Testimonies
   Submit Lyrics, Tabs, Serm
   10.000 Illustrations
   Bible College Course
   Clipart & Web Graphics
   Greatest Preachers
   Complete Talking Bible
   Christian Chat Rooms
   Links Church Resource
   HP Statement Of Faith
Download Clipart
   Audio Sermons
   Clipart & Web Graphics
   Church Administration
   Bible Study Software
   Screen Savers Software
   Verse A Day Software
   Educational Games
   Trade Center Photos

   Soft. Search Engine
Higher Praise News
   Current News
    Archived News
   Submit News
   Newsletter   Higher Praise Interact Prayer
   Prayer For All Needs
   
Submit Lyrics, Sermons
   
Contact Higher Praise
   
Advertising 
   Privacy Policy
//
He Died For You,  Click For Answer! This Is Who Jesus Is Video

'
 
0-9 A B C D E F G H I J K L M N O P Q R S T U V W X Y Z
.

//
Click For Printable...Version Of This File
 

He Rides


by Decree





Title:  He Rides
Artist:  Decree

This song really caught my attention the first time I heard it.  It
didn't take long to tab out.  Here are the symbols I use:

*=natural harmonic
h=hammer on
p=pull off
s=slide
b=bend
~=vibrato
w=whammy bar
^=accent
r=let ring

Intro
   w                     ~
E
------------------------------

B
---------5----5----5----------

G
-7*------7b9--7b9--7b9-7------

D
-------------------------5----

A
---------------------------7--

E
------------------------------


Main Riff                       [ Fill 1 ]
   ^  ^  r   ^  ^  r   ^  ^  r        ~
E
------------------------------
--------

B
-------3--3------3--3------3--
--------

G
-------0--0------0--0------0--
---0----

D
-2--2------2--2------2--2-----
0h2-----

A
-2--2------2--2------2--2-----
-----2--

E
-0--0------0--0------0--0-----
--------


The main riff is repeated 4 times, but the fill changes each time:

Fill 2
           ~
E
------------

B
-3p0--------

G
----3p2p0---

D
---------2--

A
------------

E
------------


Fill 3
           ~
E
------------

B
-3s5--------

G
----4p2p0---

D
---------2--

A
------------

E
------------


Fill 4
        ~
E
---------

B
---------

G
----0----

D
-4p2--2--

A
---------

E
---------


Fill 5
           w
E
----0----0--

B
-3s5--3s5---

G
------------

D
------------

A
------------

E
------------


Fill 6
    w
E
------------

B
-(3)--------

G
-(0)--------

D
------------

A
------------

E
------------


And then the song moves to the chorus:

Chorus
   ^  ^  r    ^  ^  r    ^  ^
E
-----------------------------

B
-------5--5-------3--3-------

G
-------6--6-------4--4-------

D
-------5--5-------3--3-2--2--

A
-7--7--7--7-5--5--5--5-2--2--

E
-5--5-------3--3-------0--0--


Then a mini-solo is played followed by the chorus again which is
followed by another mini-solo.  Here are the two mini-solos:

Mini-solo 1
                        ~~
E
----------------------------

B
-13b15----13-10-------------

G
----------------13-14-10----

D
----------------------------

A
----------------------------

E
----------------------------


Mini-solo 2
                        ~~
E
----------------------------

B
----------------------------

G
------10h12-12b14--p10------

D
-10h12----------------14----

A
----------------------------

E
----------------------------


After the second mini-solo, a variation of the chorus is played.

Chorus (variation 1)
   ^  ^  r    ^  ^  r    ^           ^
E
-----------------------------------------------

B
-------5--5-------3--3-10-10-10-10-9--9--9--9--

G
-------6--6-------4--4-11-11-11-11-10-10-10-10-

D
-------5--5-------3--3-10-10-10-10-9--9--9--9--

A
-7--7--7--7-5--5--5--5-12-12-12-12-11-11-11-11-

E
-5--5-------3--3-------10-10-10-10-9--9--9--9--


This variation is immediatley followed by the next part, Riff 2.

Riff 2
   ^   ^
E
---------

B
---------

G
---------

D
---------

A
-14--14--

E
-12--12--


After Riff 2, several solos follow.  The solos are separated by
Riff 2, which is supported by the bass.

Solo 1
                        ~~
E
----------------------------

B
-15b17----15-12-------------

G
----------------15p14p12----

D
----------------------------

A
----------------------------

E
----------------------------


Solo 2
                         ~~
E
----------------------------

B
----------------------------

G
---------12-14b16-14p12-----

D
-14p12h14--------------14---

A
----------------------------

E
----------------------------


Solo 3

E
----------------------------

B
---------14-14--14b15--14---

G
------12-14-14--14b15--14-12

D
-12h14----------------------

A
----------------------------

E
----------------------------


Solo 4
      r r
E
------------------------------

B
------15-15b17-15p12----------

G
-14b16--------------15p14p12--

D
----------------------------14

A
------------------------------

E
------------------------------


After the solos are played, the drums start to build speed while
the guitar plays this.

Outro

E
-15p14p12----------------

B
---------15p14p12--------

G
-----------------15p14p12

D
-------------------------

A
-------------------------

E
-------------------------


This part gets faster with the drums.  When the drums reach their
fastest, the guitar part changes.

Outro

E
------------------

B
------------------

G
-12-15-12-15-12-15

D
------------------

A
------------------

E
------------------


This part is repeated several times, speeding up each time, finally
matching speed with the drums.  Tremelo picking is required.  Then
the drums and bass and guitar all stop. Two beats later, the
guitar enters with this:

Intro 2
                                         w
E
-----------5-8-8b10-8p5---------------------

B
-8b10-8p5h8------------8p5------------------

G
--------------------------8p7p5-------------

D
-------------------------------7p5----------

A
----------------------------------7p5-------

E
-------------------------------------8p5----


The song is repeated with variations of the fills, mini-solos, and
solos.  The outro repeats, but instead of going back into the song,
the guitar ends on an E chord with feedback.  Listen to the song and
you can pick out the variations.

Soon, I'll post more Decree songs.

-Dillon
 


/
How To Set Up Higher Praise As Your Home Page
Copyright 1999, Higher Praise HigherPraise,Inc. All rights reserved. Terms of Use

Enjoy A Life Changing Experience

 
 
 
HigherPraise, Higher Praise, HigherPraise, Higher Praise, HigherPraise

Members..Sign Up. LogIn

 
 

Higher Praise Other Sites
 
 

HigherPraise.org/
Praise And Worship
www.higherpraise.org

HigherPraise.net
Christian Resources
www.higherpraise.net

HigherPraiseTube.com
Videos And Audios
www.higherpraisetube.com.


ChristianLyrics.org

Lyrics And Chrords
www.christianlyrics.org

ChristianChordsLyrics

Lyrics And Chrords
www.christianchordslyrics.com

ChristianChordLyrics

Lyrics And Chrords
www.christianchordlyrics.com

WorshipLyrics.org
10.000 Illustrations
www.worshiplyrics.org

WorshipLyrics.net
10.000 Illustrations
www.worshiplyrics.net

PraiseLyrics.com
PowerPoint Lyrics

www.praiselyrics.com

PraiseLyrics.org
PowerPoint Lyrics

www.praiselyrics.org

1GodTube.com
Chistian Videos

www1godtube..com

OneGodTube.com
Chistian Videos

www.onegodtube..com

 

/
Copyright 1999 - 2019, Higher Praise™ HigherPraise™,Inc. All rights reserved. Terms of Use