Higher Praise - Guitar Chords, Lyrics  GuitarTabs -  Praise nad Worship Music And Christian Songs

Higher Praise - Guitar Tabs, Guitar Chords, Lyrics
   Lyrics, Chords And Tabs
   Popular Lyrics Chords Tab
   Power Point Lyrics
   Praise & Worship Music
   Christian Music Videos
   15900 Videos & Audios
   Midi Files
   Worship Questions
   Christmas Chords, Lyrics
   Lyrics, Chords Tabs Rated

Sermon Outlines And Audio Sermons
   9344 Sermon Outlines
   N.T. Sermon Outlines
   O.T. Sermon Outlines
   Special Guest Outlines
   10.000 Illustrations
   Sunday School Studies
   Bible College Studies
   Greatest Preachers
   Bible Research Tools
Audio Sermons
   2895 Audio Sermons
   85 Sermon Videos
   291 Special Guests Serm

   Complete Audio Bible
Higher Praise Sunday School Teaching
   Children's NT Studies
   Children's OT Studies

   98 Children's Midis
   Gospel For Kids Movie
   Children's JESUS Film
Higher Praise Christian Video Library ,Videos
   Christian Television
   TBN TV Live
   15,000 Videos - HP Tube
   712 Youth Music Vids
  Christian Video Library
   Praise Videos #1 & #2
   85 Sermon Videos
   Prophecy Film -Videos
   JESUS Film -Video
   Childrens JESUS Film
   Gospel For Kids Movie
   Passion Of The Christ
   Noah, Sodom, Sinai, Ark
   Tsunami Videos Photos
News And Information
   Testimonies
   Submit Lyrics, Tabs, Serm
   10.000 Illustrations
   Bible College Course
   Clipart & Web Graphics
   Greatest Preachers
   Complete Talking Bible
   Christian Chat Rooms
   Links Church Resource
   HP Statement Of Faith
Download Clipart
   Audio Sermons
   Clipart & Web Graphics
   Church Administration
   Bible Study Software
   Screen Savers Software
   Verse A Day Software
   Educational Games
   Trade Center Photos

   Soft. Search Engine
Higher Praise News
   Current News
    Archived News
   Submit News
   Newsletter   Higher Praise Interact Prayer
   Prayer For All Needs
   
Submit Lyrics, Sermons
   
Contact Higher Praise
   
Advertising 
   Privacy Policy
//
He Died For You,  Click For Answer! This Is Who Jesus Is Video

'
 
0-9 A B C D E F G H I J K L M N O P Q R S T U V W X Y Z
.

//
Click For Printable...Version Of This File
 

What If


by Creed




Person: Anthony Luttrell
song: What if
artist: Creed
tab: WHAT IF by Creed
Drop D Tunning:
  Intro:
w/fingers
Let ring throughout
e
---------------5--------3---------1-----------------1--
B
--------5---6----6---5-----5---3-----3-----------3-----
G
-----7----------------------------------1-----1--------
D
-/7---------0------------------------------------------
A
---------------------0---------1-----------1-----------
D
-------------------------------------------------------

e
----0-----------------0------0-------------------------
B
-3-----3-----------3------2-----2---------------5------
G
----------0-----0------------------0---------7---------
D
-----------------------------------------/7------------
A
-0-----------0------------0-----------0----------------
D
-------------------------------------------------------


e
----5------------3------------1-----------------1------
B
-6-----6------5-----5------3-----3-----------3---------
G
------------------------------------1-----1------------
D
-0-----------------------------------------------------
A
----------0---0--------0---1-----------1---------------
D
-------------------------------------------------------


e
----0------------------0------0-----------------0------
B
-3-----3------------3------2-----2-----------2---------
G
----------0-----0-------------------0-----0------------
D
-------------------------------------------------------
A
-0-----------0-------------0-----------0---------------
D
-------------------------------------------------------


e
-------------------------------------------------------
B
-3-------------3--------3--------2h3-----5p3p2p0h2-----
G
-------------------------------------------------------
D
-------------------------------------------------------
A
-1-------------1--------0----------------0-------------
D
-------------------------------------------------------

  Verse:
  w/pick
e
---------------------------------------------------------
B
---------------------------------------------------------
G
---------------------------------------------------------
D
-0---0--0------------------0------0--0--0---0--0---------
A
-0---0--0-------0--3h5--0--1------1--1--0---0--0-------0-
D
-0---0--0--3h5--0-------0--0---0--2--2--0---0--0--3h5--0-


e
------------------------
B
------------------------Then play it over again 
G
----------0-------------but end with 
D
----------0-------2--2--
A
--3h5--0--1-------1--1--             A
--3h5--
D
-------0-----0----------

Gtr.2(dist.) P.M. 
e
-------------------------
B
-------------------------
G
-------------------------
D
-------------------------
A
-------------------------
D
-------------0--2.7------
                  ^*Harm. located between 2nd and 3rd frets  

   Riff A:
         P.M.---
   P.M.    P.M.   P.M.
e
-------------------------------------------
B
-------------------------------------------
G
.------------------------------------------
D
.------------------------------------------
A
---------------------3h5-----1-------------
D
---0---0--0h3--5--0-------0------0--2~~~---

    -------------------------------------------
    -------------------------------------------
    -------------------------------------------
    ---0---------------------------------------
    ---0-------------------3h5-----1-----------
    ---0--0--0--0h3--5--0-------0------0--2~~~-
    -------------------------------------------
    -------------------------------------------
    -------------------------------------------
    ---0---------------------------------------
    ---0-------------------3h5-----1-----------
    ---0--0--0--0h3--5--0-------0------0--2~~~-
    -------------------------------------------
    -------------------------------------------
    -------------------------------------------
    ---0---------------------------------------
    ---0-------------------3h5-----1-----------
    ---0--0--0--0h3--5--0-------0------0--2.7--
                                          *Harm.


   Chorus:
e
--------------------------------------
B
--------------------------------------
G
--3----3-----3----------3-------------
D
--3----3-----3----------x-------------
A
--1----1-----1----------1-------------
D
--------------------0----------2~~~---
   
  --------------------------------------
  --------------------------------------
  --5----5-----5----------3-------------
  --5----5-----5----------x-------------
  --3----3-----3----------1-------------
  --------------------0----------2~~~~-- 
                                             P.M.--
 
  --------------------------------------------------------
  --------------------------------------------------------
  -12------11-------10------10/14---14--14--------3---/7--
  --x-------x--------x-------x--x----x---x--------x----x--
  -10-------9--------8-------8/12---12--12--------1---/5--
  ------------------------------------------0--0----------
  -----------------------------------
  -----------------------------------
  -------5/7--7--7-----3-------------
  --0----X-X--X--X-----X-------------
  --0----3/5--5--5-----1-------------
  --0-------------------------2~~~~-- 
  
  -----------------------------------
  -----------------------------------
  -------5/7--7--7-----3-------------
  --0----X-X--X--X-----X-------------
  --0----3/5--5--5-----1-------------
  --0-------------------------2~~~~--  AND SO ON....

INTERLUDE:
 W/Wah:
    P.M.-------------------------------------------
e
--------------------------------------------------
B
--------------------------------------------------
G
.-------------------------------------------------
D
.-------------------------------------------------
A
------5--6----9--8-----5-----9--8-----3--5--8--6--
D
---0-------0--------0-----0--------0--------------
  
  P.M.-------------------------
      P.M.--
       
  ------------------------------------------------------

  ------------------------------------------------------

  -----------------------------------------------8~~~--.

  ----------------------------------7---------7--------.

  -------5--6-----9--8-----5-----6----------------------

  ----0--------0--------0-----0---------0--0------------


 Thats pretty much the whole song, theres no solo in it and if you
can't figure out the rest of it from what Ive given you than you can't
play guitar.  Heres the lyrics...
VERSE 1:
I can't find the rhyme in all my reason.
Lost sense of time and all seasons.
Feel Ive been beaten down
by the words of men who have no grounds.
Can't sleep beneath the trees of wisdom
when your ax has cut the roots that feed them.
Forked tounges in bitter mouths
can drive a man to bleed from inside out.
CHORUS:
What if you did?
What if you lied?
What if I avenge?
What if eye for an eye?
VERSE 2:
I've seen the wicked fruit of your vine
destroy the man who lacks a strong mind.
Human pride sings a vengful song
inspired by the times you've been walked on.
My stage is shared by many millions
who lift their heads up high because they feel this.
We are one, we are strong.
The more you hold us down the more we press on.
REPEAT CHORUS:
BRIDGE:
I know I can't hold the hate inside my mind,
what consumes your thoughts controls your life.
So I'll just ask a question, 
a lonely simple question.
I'll just ask one question:
What if? What if? What if? etc.....
 


/
How To Set Up Higher Praise As Your Home Page
Copyright 1999, Higher Praise HigherPraise,Inc. All rights reserved. Terms of Use

Enjoy A Life Changing Experience

 
 
 
HigherPraise, Higher Praise, HigherPraise, Higher Praise, HigherPraise

Members..Sign Up. LogIn

 
 

Higher Praise Other Sites
 
 

HigherPraise.org/
Praise And Worship
www.higherpraise.org

HigherPraise.net
Christian Resources
www.higherpraise.net

HigherPraiseTube.com
Videos And Audios
www.higherpraisetube.com.


ChristianLyrics.org

Lyrics And Chrords
www.christianlyrics.org

ChristianChordsLyrics

Lyrics And Chrords
www.christianchordslyrics.com

ChristianChordLyrics

Lyrics And Chrords
www.christianchordlyrics.com

WorshipLyrics.org
10.000 Illustrations
www.worshiplyrics.org

WorshipLyrics.net
10.000 Illustrations
www.worshiplyrics.net

PraiseLyrics.com
PowerPoint Lyrics

www.praiselyrics.com

PraiseLyrics.org
PowerPoint Lyrics

www.praiselyrics.org

1GodTube.com
Chistian Videos

www1godtube..com

OneGodTube.com
Chistian Videos

www.onegodtube..com

 

/
Copyright 1999 - 2019, Higher Praise™ HigherPraise™,Inc. All rights reserved. Terms of Use